  0
SECTION
  2
HEADER
  9
$ACADVER
  1
AC1015
  9
$ACADMAINTVER
 70
     6
  9
$DWGCODEPAGE
  3
ANSI_1254
  9
$INSBASE
 10
0.0
 20
0.0
 30
0.0
  9
$EXTMIN
 10
0.0
 20
0.0
 30
0.0
  9
$EXTMAX
 10
279.4
 20
215.9
 30
0.0
  9
$LIMMIN
 10
0.0
 20
0.0
  9
$LIMMAX
 10
279.4
 20
215.9
  9
$ORTHOMODE
 70
     0
  9
$REGENMODE
 70
     1
  9
$FILLMODE
 70
     1
  9
$QTEXTMODE
 70
     0
  9
$MIRRTEXT
 70
     1
  9
$LTSCALE
 40
1.0
  9
$ATTMODE
 70
     1
  9
$TEXTSIZE
 40
3.5
  9
$TRACEWID
 40
1.0
  9
$TEXTSTYLE
  7
Standard
  9
$CLAYER
  8
0
  9
$CELTYPE
  6
ByLayer
  9
$CECOLOR
 62
   256
  9
$CELTSCALE
 40
1.0
  9
$DISPSILH
 70
     0
  9
$DIMSCALE
 40
1.0
  9
$DIMASZ
 40
3.5
  9
$DIMEXO
 40
1.0
  9
$DIMDLI
 40
3.75
  9
$DIMRND
 40
0.0
  9
$DIMDLE
 40
0.0
  9
$DIMEXE
 40
1.0
  9
$DIMTP
 40
0.0
  9
$DIMTM
 40
0.0
  9
$DIMTXT
 40
3.5
  9
$DIMCEN
 40
2.5
  9
$DIMTSZ
 40
0.0
  9
$DIMTOL
 70
     0
  9
$DIMLIM
 70
     0
  9
$DIMTIH
 70
     1
  9
$DIMTOH
 70
     1
  9
$DIMSE1
 70
     0
  9
$DIMSE2
 70
     0
  9
$DIMTAD
 70
     1
  9
$DIMZIN
 70
     0
  9
$DIMBLK
  1

  9
$DIMASO
 70
     1
  9
$DIMSHO
 70
     1
  9
$DIMPOST
  1

  9
$DIMAPOST
  1

  9
$DIMALT
 70
     0
  9
$DIMALTD
 70
     3
  9
$DIMALTF
 40
0.0393700787
  9
$DIMLFAC
 40
1.0
  9
$DIMTOFL
 70
     1
  9
$DIMTVP
 40
0.0
  9
$DIMTIX
 70
     0
  9
$DIMSOXD
 70
     0
  9
$DIMSAH
 70
     0
  9
$DIMBLK1
  1

  9
$DIMBLK2
  1

  9
$DIMSTYLE
  2
ISO-25
  9
$DIMCLRD
 70
     0
  9
$DIMCLRE
 70
     0
  9
$DIMCLRT
 70
     0
  9
$DIMTFAC
 40
1.0
  9
$DIMGAP
 40
1.524
  9
$DIMJUST
 70
     0
  9
$DIMSD1
 70
     0
  9
$DIMSD2
 70
     0
  9
$DIMTOLJ
 70
     0
  9
$DIMTZIN
 70
     0
  9
$DIMALTZ
 70
     0
  9
$DIMALTTZ
 70
     0
  9
$DIMUPT
 70
     0
  9
$DIMDEC
 70
     2
  9
$DIMTDEC
 70
     2
  9
$DIMALTU
 70
     2
  9
$DIMALTTD
 70
     3
  9
$DIMTXSTY
  7
Standard
  9
$DIMAUNIT
 70
     0
  9
$DIMADEC
 70
     2
  9
$DIMALTRND
 40
0.0
  9
$DIMAZIN
 70
     0
  9
$DIMDSEP
 70
    44
  9
$DIMATFIT
 70
     3
  9
$DIMFRAC
 70
     0
  9
$DIMLDRBLK
  1

  9
$DIMLUNIT
 70
     2
  9
$DIMLWD
 70
    -2
  9
$DIMLWE
 70
    -2
  9
$DIMTMOVE
 70
     0
  9
$LUNITS
 70
     2
  9
$LUPREC
 70
     2
  9
$SKETCHINC
 40
1.0
  9
$FILLETRAD
 40
10.0
  9
$AUNITS
 70
     0
  9
$AUPREC
 70
     2
  9
$MENU
  1
.
  9
$ELEVATION
 40
0.0
  9
$PELEVATION
 40
0.0
  9
$THICKNESS
 40
0.0
  9
$LIMCHECK
 70
     0
  9
$CHAMFERA
 40
0.0
  9
$CHAMFERB
 40
0.0
  9
$CHAMFERC
 40
0.0
  9
$CHAMFERD
 40
0.0
  9
$SKPOLY
 70
     0
  9
$TDCREATE
 40
2459741.588716389
  9
$TDUCREATE
 40
2459741.463716389
  9
$TDUPDATE
 40
2459741.588718195
  9
$TDUUPDATE
 40
2459741.463718195
  9
$TDINDWG
 40
0.0000000116
  9
$TDUSRTIMER
 40
0.0000000116
  9
$USRTIMER
 70
     1
  9
$ANGBASE
 50
0.0
  9
$ANGDIR
 70
     0
  9
$PDMODE
 70
     0
  9
$PDSIZE
 40
-1.0
  9
$PLINEWID
 40
0.0
  9
$SPLFRAME
 70
     0
  9
$SPLINETYPE
 70
     6
  9
$SPLINESEGS
 70
     8
  9
$HANDSEED
  5
178
  9
$SURFTAB1
 70
     6
  9
$SURFTAB2
 70
     6
  9
$SURFTYPE
 70
     6
  9
$SURFU
 70
     6
  9
$SURFV
 70
     6
  9
$UCSBASE
  2

  9
$UCSNAME
  2

  9
$UCSORG
 10
0.0
 20
0.0
 30
0.0
  9
$UCSXDIR
 10
1.0
 20
0.0
 30
0.0
  9
$UCSYDIR
 10
0.0
 20
1.0
 30
0.0
  9
$UCSORTHOREF
  2

  9
$UCSORTHOVIEW
 70
     0
  9
$UCSORGTOP
 10
0.0
 20
0.0
 30
0.0
  9
$UCSORGBOTTOM
 10
0.0
 20
0.0
 30
0.0
  9
$UCSORGLEFT
 10
0.0
 20
0.0
 30
0.0
  9
$UCSORGRIGHT
 10
0.0
 20
0.0
 30
0.0
  9
$UCSORGFRONT
 10
0.0
 20
0.0
 30
0.0
  9
$UCSORGBACK
 10
0.0
 20
0.0
 30
0.0
  9
$PUCSBASE
  2

  9
$PUCSNAME
  2

  9
$PUCSORG
 10
0.0
 20
0.0
 30
0.0
  9
$PUCSXDIR
 10
1.0
 20
0.0
 30
0.0
  9
$PUCSYDIR
 10
0.0
 20
1.0
 30
0.0
  9
$PUCSORTHOREF
  2

  9
$PUCSORTHOVIEW
 70
     0
  9
$PUCSORGTOP
 10
0.0
 20
0.0
 30
0.0
  9
$PUCSORGBOTTOM
 10
0.0
 20
0.0
 30
0.0
  9
$PUCSORGLEFT
 10
0.0
 20
0.0
 30
0.0
  9
$PUCSORGRIGHT
 10
0.0
 20
0.0
 30
0.0
  9
$PUCSORGFRONT
 10
0.0
 20
0.0
 30
0.0
  9
$PUCSORGBACK
 10
0.0
 20
0.0
 30
0.0
  9
$USERI1
 70
     0
  9
$USERI2
 70
     0
  9
$USERI3
 70
     0
  9
$USERI4
 70
     0
  9
$USERI5
 70
     0
  9
$USERR1
 40
0.0
  9
$USERR2
 40
0.0
  9
$USERR3
 40
0.0
  9
$USERR4
 40
0.0
  9
$USERR5
 40
0.0
  9
$WORLDVIEW
 70
     1
  9
$SHADEDGE
 70
     3
  9
$SHADEDIF
 70
    70
  9
$TILEMODE
 70
     1
  9
$MAXACTVP
 70
    64
  9
$PINSBASE
 10
0.0
 20
0.0
 30
0.0
  9
$PLIMCHECK
 70
     0
  9
$PEXTMIN
 10
1.0000000000E+20
 20
1.0000000000E+20
 30
1.0000000000E+20
  9
$PEXTMAX
 10
-1.0000000000E+20
 20
-1.0000000000E+20
 30
-1.0000000000E+20
  9
$PLIMMIN
 10
0.0
 20
0.0
  9
$PLIMMAX
 10
420.0
 20
297.0
  9
$UNITMODE
 70
     0
  9
$VISRETAIN
 70
     1
  9
$PLINEGEN
 70
     0
  9
$PSLTSCALE
 70
     1
  9
$TREEDEPTH
 70
  3020
  9
$CMLSTYLE
  2
Standard
  9
$CMLJUST
 70
     0
  9
$CMLSCALE
 40
20.0
  9
$PROXYGRAPHICS
 70
     1
  9
$MEASUREMENT
 70
     1
  9
$CELWEIGHT
370
    -1
  9
$ENDCAPS
280
     0
  9
$JOINSTYLE
280
     0
  9
$LWDISPLAY
290
     1
  9
$INSUNITS
 70
     4
  9
$HYPERLINKBASE
  1

  9
$STYLESHEET
  1

  9
$XEDIT
290
     1
  9
$CEPSNTYPE
380
     0
  9
$PSTYLEMODE
290
     1
  9
$FINGERPRINTGUID
  2
{edd4a783-b4b9-4539-a2a3-42987606da0d}
  9
$VERSIONGUID
  2
{FAEB1C32-E019-11D5-929B-00C0DF256EC4}
  9
$EXTNAMES
290
     1
  9
$PSVPSCALE
 40
0.0
  9
$OLESTARTUP
290
     0
  0
ENDSEC
  0
SECTION
  2
CLASSES
  0
CLASS
  1
ACDBDICTIONARYWDFLT
  2
AcDbDictionaryWithDefault
  3
ObjectDBX Classes
 90
        0
280
     0
281
     0
  0
CLASS
  1
VISUALSTYLE
  2
AcDbVisualStyle
  3
ObjectDBX Classes
 90
     4095
280
     0
281
     0
  0
CLASS
  1
MATERIAL
  2
AcDbMaterial
  3
ObjectDBX Classes
 90
     1153
280
     0
281
     0
  0
CLASS
  1
SCALE
  2
AcDbScale
  3
ObjectDBX Classes
 90
     1153
280
     0
281
     0
  0
CLASS
  1
TABLESTYLE
  2
AcDbTableStyle
  3
ObjectDBX Classes
 90
     4095
280
     0
281
     0
  0
CLASS
  1
MLEADERSTYLE
  2
AcDbMLeaderStyle
  3
ACDB_MLEADERSTYLE_CLASS
 90
     4095
280
     0
281
     0
  0
CLASS
  1
SUN
  2
AcDbSun
  3
SCENEOE
 90
     1153
280
     0
281
     0
  0
CLASS
  1
ACDBPLACEHOLDER
  2
AcDbPlaceHolder
  3
ObjectDBX Classes
 90
        0
280
     0
281
     0
  0
CLASS
  1
LAYOUT
  2
AcDbLayout
  3
ObjectDBX Classes
 90
        0
280
     0
281
     0
  0
ENDSEC
  0
SECTION
  2
TABLES
  0
TABLE
  2
VPORT
  5
8
330
0
100
AcDbSymbolTable
 70
     1
  0
VPORT
  5
29
330
8
100
AcDbSymbolTableRecord
100
AcDbViewportTableRecord
  2
*Active
 70
     0
 10
0.0
 20
0.0
 11
1.0
 21
1.0
 12
139.7
 22
107.95
 13
0.0
 23
0.0
 14
10.0
 24
10.0
 15
10.0
 25
10.0
 16
0.0
 26
0.0
 36
1.0
 17
0.0
 27
0.0
 37
0.0
 40
215.9
 41
1.2941176471
 42
50.0
 43
0.0
 44
0.0
 50
0.0
 51
0.0
 71
     0
 72
  2000
 73
     1
 74
     3
 75
     0
 76
     0
 77
     0
 78
     0
281
     0
 65
     1
110
0.0
120
0.0
130
0.0
111
1.0
121
0.0
131
0.0
112
0.0
122
1.0
132
0.0
 79
     0
146
0.0
  0
ENDTAB
  0
TABLE
  2
LTYPE
  5
5
330
0
100
AcDbSymbolTable
 70
     6
  0
LTYPE
  5
14
330
5
100
AcDbSymbolTableRecord
100
AcDbLinetypeTableRecord
  2
ByBlock
 70
     0
  3

 72
    65
 73
     0
 40
0.0
  0
LTYPE
  5
15
330
5
100
AcDbSymbolTableRecord
100
AcDbLinetypeTableRecord
  2
ByLayer
 70
     0
  3

 72
    65
 73
     0
 40
0.0
  0
LTYPE
  5
16
330
5
100
AcDbSymbolTableRecord
100
AcDbLinetypeTableRecord
  2
Continuous
 70
     0
  3
Solid line
 72
    65
 73
     0
 40
0.0
  0
LTYPE
  5
6E
330
5
100
AcDbSymbolTableRecord
100
AcDbLinetypeTableRecord
  2
HIDDEN
 70
     0
  3
Hidden __ __ __ __ __ __ __ __ __ __ __ __ __ __
 72
    65
 73
     2
 40
1.905
 49
1.27
 74
     0
 49
-0.635
 74
     0
  0
LTYPE
  5
6F
330
5
100
AcDbSymbolTableRecord
100
AcDbLinetypeTableRecord
  2
PHANTOM
 70
     0
  3
Phantom ______  __  __  ______  __  __  ______
 72
    65
 73
     6
 40
12.7
 49
6.35
 74
     0
 49
-1.27
 74
     0
 49
1.27
 74
     0
 49
-1.27
 74
     0
 49
1.27
 74
     0
 49
-1.27
 74
     0
  0
LTYPE
  5
70
330
5
100
AcDbSymbolTableRecord
100
AcDbLinetypeTableRecord
  2
CENTER
 70
     0
  3
Center ____ _ ____ _ ____ _ ____ _ ____ _ ____
 72
    65
 73
     4
 40
10.16
 49
6.35
 74
     0
 49
-1.27
 74
     0
 49
1.27
 74
     0
 49
-1.27
 74
     0
  0
LTYPE
  5
71
330
5
100
AcDbSymbolTableRecord
100
AcDbLinetypeTableRecord
  2
CENTERX2
 70
     0
  3
Center (2x) ________  __  ________  __  _____
 72
    65
 73
     4
 40
20.32
 49
12.7
 74
     0
 49
-2.54
 74
     0
 49
2.54
 74
     0
 49
-2.54
 74
     0
  0
LTYPE
  5
72
330
5
100
AcDbSymbolTableRecord
100
AcDbLinetypeTableRecord
  2
DOT2
 70
     0
  3
Dot (.5x) ........................................
 72
    65
 73
     2
 40
0.635
 49
0.0
 74
     0
 49
-0.635
 74
     0
  0
ENDTAB
  0
TABLE
  2
LAYER
  5
2
330
0
100
AcDbSymbolTable
 70
    17
  0
LAYER
  5
10
330
2
100
AcDbSymbolTableRecord
100
AcDbLayerTableRecord
  2
0
 70
     0
 62
     7
  6
Continuous
370
    -3
390
F
  0
LAYER
  5
73
330
2
100
AcDbSymbolTableRecord
100
AcDbLayerTableRecord
  2
FORMAT
 70
     0
 62
     7
  6
Continuous
370
    -3
390
F
  0
LAYER
  5
74
330
2
100
AcDbSymbolTableRecord
100
AcDbLayerTableRecord
  2
YARDIMCI_GEOMETRI
 70
     0
 62
    -6
  6
Continuous
290
     0
370
    -3
390
F
  0
LAYER
  5
75
330
2
100
AcDbSymbolTableRecord
100
AcDbLayerTableRecord
  2
SAYFA_CERCEVESI
 70
     0
 62
     7
  6
Continuous
370
    25
390
F
  0
LAYER
  5
76
330
2
100
AcDbSymbolTableRecord
100
AcDbLayerTableRecord
  2
ANTET
 70
     0
 62
     7
  6
Continuous
370
    -3
390
F
  0
LAYER
  5
77
330
2
100
AcDbSymbolTableRecord
100
AcDbLayerTableRecord
  2
OLCU
 70
     0
 62
   150
  6
Continuous
370
    -3
390
F
  0
LAYER
  5
78
330
2
100
AcDbSymbolTableRecord
100
AcDbLayerTableRecord
  2
METIN
 70
     0
 62
    96
  6
Continuous
370
    -3
390
F
  0
LAYER
  5
79
330
2
100
AcDbSymbolTableRecord
100
AcDbLayerTableRecord
  2
BALON
 70
     0
 62
     5
  6
Continuous
370
    -3
390
F
  0
LAYER
  5
7A
330
2
100
AcDbSymbolTableRecord
100
AcDbLayerTableRecord
  2
VURGU
 70
     0
 62
     7
  6
Continuous
370
    -3
390
F
  0
LAYER
  5
7B
330
2
100
AcDbSymbolTableRecord
100
AcDbLayerTableRecord
  2
SILIK
 70
     0
 62
     7
  6
Continuous
370
    -3
390
F
  0
LAYER
  5
7C
330
2
100
AcDbSymbolTableRecord
100
AcDbLayerTableRecord
  2
MODEL
 70
     0
 62
     7
  6
Continuous
370
    -3
390
F
  0
LAYER
  5
7D
330
2
100
AcDbSymbolTableRecord
100
AcDbLayerTableRecord
  2
DETAYLANDıRMA
 70
     0
 62
   190
  6
Continuous
370
    -3
390
F
  0
LAYER
  5
7E
330
2
100
AcDbSymbolTableRecord
100
AcDbLayerTableRecord
  2
TOLERANS
 70
     0
 62
   230
  6
Continuous
370
    -3
390
F
  0
LAYER
  5
7F
330
2
100
AcDbSymbolTableRecord
100
AcDbLayerTableRecord
  2
MERKEZ_CIZGILERI
 70
     0
 62
    30
  6
Continuous
370
    -3
390
F
  0
LAYER
  5
80
330
2
100
AcDbSymbolTableRecord
100
AcDbLayerTableRecord
  2
KESIT-DETAY_CIZGILERI
 70
     0
 62
     7
  6
Continuous
370
    -3
390
F
  0
LAYER
  5
81
330
2
100
AcDbSymbolTableRecord
100
AcDbLayerTableRecord
  2
\U+041E\U+0421\U+0415\U+0412\U+042B\U+0415
 70
     0
 62
     7
  6
Continuous
370
    -3
390
F
  0
LAYER
  5
82
330
2
100
AcDbSymbolTableRecord
100
AcDbLayerTableRecord
  2
\U+0412\U+041E\U+0414\U+042F\U+041D\U+042B\U+0415_\U+0417\U+041D\U+0410\U+041A\U+0418
 70
     0
 62
    11
  6
Continuous
370
    -3
390
F
  0
ENDTAB
  0
TABLE
  2
STYLE
  5
3
330
0
100
AcDbSymbolTable
 70
     1
  0
STYLE
  5
11
330
3
100
AcDbSymbolTableRecord
100
AcDbTextStyleTableRecord
  2
Standard
 70
     0
 40
0.0
 41
1.0
 50
0.0
 71
     0
 42
3.5
  3
txt
  4

  0
ENDTAB
  0
TABLE
  2
VIEW
  5
6
330
0
100
AcDbSymbolTable
 70
     0
  0
ENDTAB
  0
TABLE
  2
UCS
  5
7
330
0
100
AcDbSymbolTable
 70
     0
  0
ENDTAB
  0
TABLE
  2
APPID
  5
9
330
0
100
AcDbSymbolTable
 70
     1
  0
APPID
  5
12
330
9
100
AcDbSymbolTableRecord
100
AcDbRegAppTableRecord
  2
ACAD
 70
     0
  0
ENDTAB
  0
TABLE
  2
DIMSTYLE
  5
A
330
0
100
AcDbSymbolTable
 70
     1
100
AcDbDimStyleTable
  0
DIMSTYLE
105
27
330
A
100
AcDbSymbolTableRecord
100
AcDbDimStyleTableRecord
  2
ISO-25
 70
     0
 41
2.5
 42
0.625
 43
3.75
 44
1.25
 73
     0
 74
     0
 77
     1
 78
     8
140
2.5
141
2.5
143
0.0393700787
147
0.625
171
     3
172
     1
178
     0
271
     2
272
     2
274
     3
278
    44
283
     0
284
     8
340
11
  0
ENDTAB
  0
TABLE
  2
BLOCK_RECORD
  5
1
330
0
100
AcDbSymbolTable
 70
    10
  0
BLOCK_RECORD
  5
1F
330
1
100
AcDbSymbolTableRecord
100
AcDbBlockTableRecord
  2
*Model_Space
340
22
  0
BLOCK_RECORD
  5
1B
330
1
100
AcDbSymbolTableRecord
100
AcDbBlockTableRecord
  2
*Paper_Space
340
1E
  0
BLOCK_RECORD
  5
23
330
1
100
AcDbSymbolTableRecord
100
AcDbBlockTableRecord
  2
*Paper_Space0
340
26
  0
BLOCK_RECORD
  5
97
330
1
100
AcDbSymbolTableRecord
100
AcDbBlockTableRecord
  2
SW_CENTERMARKSYMBOL_0
340
0
102
{BLKREFS
331
A2
102
}
  0
BLOCK_RECORD
  5
A3
330
1
100
AcDbSymbolTableRecord
100
AcDbBlockTableRecord
  2
SW_CENTERMARKSYMBOL_1
340
0
102
{BLKREFS
331
AE
102
}
  0
BLOCK_RECORD
  5
AF
330
1
100
AcDbSymbolTableRecord
100
AcDbBlockTableRecord
  2
SW_CENTERMARKSYMBOL_2
340
0
102
{BLKREFS
331
BA
102
}
  0
BLOCK_RECORD
  5
BB
330
1
100
AcDbSymbolTableRecord
100
AcDbBlockTableRecord
  2
SW_CENTERMARKSYMBOL_3
340
0
102
{BLKREFS
331
C6
102
}
  0
BLOCK_RECORD
  5
C7
330
1
100
AcDbSymbolTableRecord
100
AcDbBlockTableRecord
  2
SW_CENTERMARKSYMBOL_4
340
0
102
{BLKREFS
331
D2
102
}
  0
BLOCK_RECORD
  5
D3
330
1
100
AcDbSymbolTableRecord
100
AcDbBlockTableRecord
  2
SW_CENTERMARKSYMBOL_5
340
0
102
{BLKREFS
331
DE
102
}
  0
BLOCK_RECORD
  5
DF
330
1
100
AcDbSymbolTableRecord
100
AcDbBlockTableRecord
  2
SW_CENTERMARKSYMBOL_6
340
0
102
{BLKREFS
331
EA
102
}
  0
BLOCK_RECORD
  5
EB
330
1
100
AcDbSymbolTableRecord
100
AcDbBlockTableRecord
  2
SW_CENTERMARKSYMBOL_7
340
0
102
{BLKREFS
331
F6
102
}
  0
BLOCK_RECORD
  5
F7
330
1
100
AcDbSymbolTableRecord
100
AcDbBlockTableRecord
  2
SW_CENTERMARKSYMBOL_8
340
0
102
{BLKREFS
331
102
102
}
  0
ENDTAB
  0
ENDSEC
  0
SECTION
  2
BLOCKS
  0
BLOCK
  5
20
330
1F
100
AcDbEntity
  8
0
100
AcDbBlockBegin
  2
*Model_Space
 70
     0
 10
0.0
 20
0.0
 30
0.0
  3
*Model_Space
  1

  0
ENDBLK
  5
21
330
1F
100
AcDbEntity
  8
0
100
AcDbBlockEnd
  0
BLOCK
  5
1C
330
1B
100
AcDbEntity
 67
     1
  8
0
100
AcDbBlockBegin
  2
*Paper_Space
 70
     0
 10
0.0
 20
0.0
 30
0.0
  3
*Paper_Space
  1

  0
ENDBLK
  5
1D
330
1B
100
AcDbEntity
 67
     1
  8
0
100
AcDbBlockEnd
  0
BLOCK
  5
24
330
23
100
AcDbEntity
  8
0
100
AcDbBlockBegin
  2
*Paper_Space0
 70
     0
 10
0.0
 20
0.0
 30
0.0
  3
*Paper_Space0
  1

  0
ENDBLK
  5
25
330
23
100
AcDbEntity
  8
0
100
AcDbBlockEnd
  0
BLOCK
  5
98
330
97
100
AcDbEntity
  8
0
100
AcDbBlockBegin
  2
SW_CENTERMARKSYMBOL_0
 70
     0
 10
0.0
 20
0.0
 30
0.0
  3
SW_CENTERMARKSYMBOL_0
  1

  0
LINE
  5
9A
330
97
100
AcDbEntity
  8
FORMAT
 62
     0
100
AcDbLine
 10
0.0
 20
0.0
 30
0.0
 11
0.0
 21
2.5
 31
0.0
  0
LINE
  5
9B
330
97
100
AcDbEntity
  8
FORMAT
 62
     0
100
AcDbLine
 10
0.0
 20
0.0
 30
0.0
 11
-2.5
 21
0.0
 31
0.0
  0
LINE
  5
9C
330
97
100
AcDbEntity
  8
FORMAT
 62
     0
100
AcDbLine
 10
0.0
 20
0.0
 30
0.0
 11
0.0
 21
-2.5
 31
0.0
  0
LINE
  5
9D
330
97
100
AcDbEntity
  8
FORMAT
 62
     0
100
AcDbLine
 10
0.0
 20
0.0
 30
0.0
 11
2.5
 21
0.0
 31
0.0
  0
LINE
  5
9E
330
97
100
AcDbEntity
  8
FORMAT
 62
     0
100
AcDbLine
 10
0.0
 20
5.0
 30
0.0
 11
0.0
 21
175.0
 31
0.0
  0
LINE
  5
9F
330
97
100
AcDbEntity
  8
FORMAT
 62
     0
100
AcDbLine
 10
-5.0
 20
0.0
 30
0.0
 11
-175.0
 21
0.0
 31
0.0
  0
LINE
  5
A0
330
97
100
AcDbEntity
  8
FORMAT
 62
     0
100
AcDbLine
 10
0.0
 20
-5.0
 30
0.0
 11
0.0
 21
-175.0
 31
0.0
  0
LINE
  5
A1
330
97
100
AcDbEntity
  8
FORMAT
 62
     0
100
AcDbLine
 10
5.0
 20
0.0
 30
0.0
 11
175.0
 21
0.0
 31
0.0
  0
ENDBLK
  5
99
330
97
100
AcDbEntity
  8
0
100
AcDbBlockEnd
  0
BLOCK
  5
A4
330
A3
100
AcDbEntity
  8
0
100
AcDbBlockBegin
  2
SW_CENTERMARKSYMBOL_1
 70
     0
 10
0.0
 20
0.0
 30
0.0
  3
SW_CENTERMARKSYMBOL_1
  1

  0
LINE
  5
A6
330
A3
100
AcDbEntity
  8
FORMAT
 62
     0
100
AcDbLine
 10
0.0
 20
0.0
 30
0.0
 11
0.0
 21
2.5
 31
0.0
  0
LINE
  5
A7
330
A3
100
AcDbEntity
  8
FORMAT
 62
     0
100
AcDbLine
 10
0.0
 20
0.0
 30
0.0
 11
-2.5
 21
0.0
 31
0.0
  0
LINE
  5
A8
330
A3
100
AcDbEntity
  8
FORMAT
 62
     0
100
AcDbLine
 10
0.0
 20
0.0
 30
0.0
 11
0.0
 21
-2.5
 31
0.0
  0
LINE
  5
A9
330
A3
100
AcDbEntity
  8
FORMAT
 62
     0
100
AcDbLine
 10
0.0
 20
0.0
 30
0.0
 11
2.5
 21
0.0
 31
0.0
  0
LINE
  5
AA
330
A3
100
AcDbEntity
  8
FORMAT
 62
     0
100
AcDbLine
 10
0.0
 20
5.0
 30
0.0
 11
0.0
 21
13.5
 31
0.0
  0
LINE
  5
AB
330
A3
100
AcDbEntity
  8
FORMAT
 62
     0
100
AcDbLine
 10
-5.0
 20
0.0
 30
0.0
 11
-13.5
 21
0.0
 31
0.0
  0
LINE
  5
AC
330
A3
100
AcDbEntity
  8
FORMAT
 62
     0
100
AcDbLine
 10
0.0
 20
-5.0
 30
0.0
 11
0.0
 21
-13.5
 31
0.0
  0
LINE
  5
AD
330
A3
100
AcDbEntity
  8
FORMAT
 62
     0
100
AcDbLine
 10
5.0
 20
0.0
 30
0.0
 11
13.5
 21
0.0
 31
0.0
  0
ENDBLK
  5
A5
330
A3
100
AcDbEntity
  8
0
100
AcDbBlockEnd
  0
BLOCK
  5
B0
330
AF
100
AcDbEntity
  8
0
100
AcDbBlockBegin
  2
SW_CENTERMARKSYMBOL_2
 70
     0
 10
0.0
 20
0.0
 30
0.0
  3
SW_CENTERMARKSYMBOL_2
  1

  0
LINE
  5
B2
330
AF
100
AcDbEntity
  8
FORMAT
 62
     0
100
AcDbLine
 10
0.0
 20
0.0
 30
0.0
 11
0.0
 21
2.5
 31
0.0
  0
LINE
  5
B3
330
AF
100
AcDbEntity
  8
FORMAT
 62
     0
100
AcDbLine
 10
0.0
 20
0.0
 30
0.0
 11
-2.5
 21
0.0
 31
0.0
  0
LINE
  5
B4
330
AF
100
AcDbEntity
  8
FORMAT
 62
     0
100
AcDbLine
 10
0.0
 20
0.0
 30
0.0
 11
0.0
 21
-2.5
 31
0.0
  0
LINE
  5
B5
330
AF
100
AcDbEntity
  8
FORMAT
 62
     0
100
AcDbLine
 10
0.0
 20
0.0
 30
0.0
 11
2.5
 21
0.0
 31
0.0
  0
LINE
  5
B6
330
AF
100
AcDbEntity
  8
FORMAT
 62
     0
100
AcDbLine
 10
0.0
 20
5.0
 30
0.0
 11
0.0
 21
13.5
 31
0.0
  0
LINE
  5
B7
330
AF
100
AcDbEntity
  8
FORMAT
 62
     0
100
AcDbLine
 10
-5.0
 20
0.0
 30
0.0
 11
-13.5
 21
0.0
 31
0.0
  0
LINE
  5
B8
330
AF
100
AcDbEntity
  8
FORMAT
 62
     0
100
AcDbLine
 10
0.0
 20
-5.0
 30
0.0
 11
0.0
 21
-13.5
 31
0.0
  0
LINE
  5
B9
330
AF
100
AcDbEntity
  8
FORMAT
 62
     0
100
AcDbLine
 10
5.0
 20
0.0
 30
0.0
 11
13.5
 21
0.0
 31
0.0
  0
ENDBLK
  5
B1
330
AF
100
AcDbEntity
  8
0
100
AcDbBlockEnd
  0
BLOCK
  5
BC
330
BB
100
AcDbEntity
  8
0
100
AcDbBlockBegin
  2
SW_CENTERMARKSYMBOL_3
 70
     0
 10
0.0
 20
0.0
 30
0.0
  3
SW_CENTERMARKSYMBOL_3
  1

  0
LINE
  5
BE
330
BB
100
AcDbEntity
  8
FORMAT
 62
     0
100
AcDbLine
 10
0.0
 20
0.0
 30
0.0
 11
0.0
 21
2.5
 31
0.0
  0
LINE
  5
BF
330
BB
100
AcDbEntity
  8
FORMAT
 62
     0
100
AcDbLine
 10
0.0
 20
0.0
 30
0.0
 11
-2.5
 21
0.0
 31
0.0
  0
LINE
  5
C0
330
BB
100
AcDbEntity
  8
FORMAT
 62
     0
100
AcDbLine
 10
0.0
 20
0.0
 30
0.0
 11
0.0
 21
-2.5
 31
0.0
  0
LINE
  5
C1
330
BB
100
AcDbEntity
  8
FORMAT
 62
     0
100
AcDbLine
 10
0.0
 20
0.0
 30
0.0
 11
2.5
 21
0.0
 31
0.0
  0
LINE
  5
C2
330
BB
100
AcDbEntity
  8
FORMAT
 62
     0
100
AcDbLine
 10
0.0
 20
5.0
 30
0.0
 11
0.0
 21
13.5
 31
0.0
  0
LINE
  5
C3
330
BB
100
AcDbEntity
  8
FORMAT
 62
     0
100
AcDbLine
 10
-5.0
 20
0.0
 30
0.0
 11
-13.5
 21
0.0
 31
0.0
  0
LINE
  5
C4
330
BB
100
AcDbEntity
  8
FORMAT
 62
     0
100
AcDbLine
 10
0.0
 20
-5.0
 30
0.0
 11
0.0
 21
-13.5
 31
0.0
  0
LINE
  5
C5
330
BB
100
AcDbEntity
  8
FORMAT
 62
     0
100
AcDbLine
 10
5.0
 20
0.0
 30
0.0
 11
13.5
 21
0.0
 31
0.0
  0
ENDBLK
  5
BD
330
BB
100
AcDbEntity
  8
0
100
AcDbBlockEnd
  0
BLOCK
  5
C8
330
C7
100
AcDbEntity
  8
0
100
AcDbBlockBegin
  2
SW_CENTERMARKSYMBOL_4
 70
     0
 10
0.0
 20
0.0
 30
0.0
  3
SW_CENTERMARKSYMBOL_4
  1

  0
LINE
  5
CA
330
C7
100
AcDbEntity
  8
FORMAT
 62
     0
100
AcDbLine
 10
0.0
 20
0.0
 30
0.0
 11
0.0
 21
2.5
 31
0.0
  0
LINE
  5
CB
330
C7
100
AcDbEntity
  8
FORMAT
 62
     0
100
AcDbLine
 10
0.0
 20
0.0
 30
0.0
 11
-2.5
 21
0.0
 31
0.0
  0
LINE
  5
CC
330
C7
100
AcDbEntity
  8
FORMAT
 62
     0
100
AcDbLine
 10
0.0
 20
0.0
 30
0.0
 11
0.0
 21
-2.5
 31
0.0
  0
LINE
  5
CD
330
C7
100
AcDbEntity
  8
FORMAT
 62
     0
100
AcDbLine
 10
0.0
 20
0.0
 30
0.0
 11
2.5
 21
0.0
 31
0.0
  0
LINE
  5
CE
330
C7
100
AcDbEntity
  8
FORMAT
 62
     0
100
AcDbLine
 10
0.0
 20
5.0
 30
0.0
 11
0.0
 21
13.5
 31
0.0
  0
LINE
  5
CF
330
C7
100
AcDbEntity
  8
FORMAT
 62
     0
100
AcDbLine
 10
-5.0
 20
0.0
 30
0.0
 11
-13.5
 21
0.0
 31
0.0
  0
LINE
  5
D0
330
C7
100
AcDbEntity
  8
FORMAT
 62
     0
100
AcDbLine
 10
0.0
 20
-5.0
 30
0.0
 11
0.0
 21
-13.5
 31
0.0
  0
LINE
  5
D1
330
C7
100
AcDbEntity
  8
FORMAT
 62
     0
100
AcDbLine
 10
5.0
 20
0.0
 30
0.0
 11
13.5
 21
0.0
 31
0.0
  0
ENDBLK
  5
C9
330
C7
100
AcDbEntity
  8
0
100
AcDbBlockEnd
  0
BLOCK
  5
D4
330
D3
100
AcDbEntity
  8
0
100
AcDbBlockBegin
  2
SW_CENTERMARKSYMBOL_5
 70
     0
 10
0.0
 20
0.0
 30
0.0
  3
SW_CENTERMARKSYMBOL_5
  1

  0
LINE
  5
D6
330
D3
100
AcDbEntity
  8
FORMAT
 62
     0
100
AcDbLine
 10
0.0
 20
0.0
 30
0.0
 11
0.0
 21
2.5
 31
0.0
  0
LINE
  5
D7
330
D3
100
AcDbEntity
  8
FORMAT
 62
     0
100
AcDbLine
 10
0.0
 20
0.0
 30
0.0
 11
-2.5
 21
0.0
 31
0.0
  0
LINE
  5
D8
330
D3
100
AcDbEntity
  8
FORMAT
 62
     0
100
AcDbLine
 10
0.0
 20
0.0
 30
0.0
 11
0.0
 21
-2.5
 31
0.0
  0
LINE
  5
D9
330
D3
100
AcDbEntity
  8
FORMAT
 62
     0
100
AcDbLine
 10
0.0
 20
0.0
 30
0.0
 11
2.5
 21
0.0
 31
0.0
  0
LINE
  5
DA
330
D3
100
AcDbEntity
  8
FORMAT
 62
     0
100
AcDbLine
 10
0.0
 20
5.0
 30
0.0
 11
0.0
 21
14.5
 31
0.0
  0
LINE
  5
DB
330
D3
100
AcDbEntity
  8
FORMAT
 62
     0
100
AcDbLine
 10
-5.0
 20
0.0
 30
0.0
 11
-14.5
 21
0.0
 31
0.0
  0
LINE
  5
DC
330
D3
100
AcDbEntity
  8
FORMAT
 62
     0
100
AcDbLine
 10
0.0
 20
-5.0
 30
0.0
 11
0.0
 21
-14.5
 31
0.0
  0
LINE
  5
DD
330
D3
100
AcDbEntity
  8
FORMAT
 62
     0
100
AcDbLine
 10
5.0
 20
0.0
 30
0.0
 11
14.5
 21
0.0
 31
0.0
  0
ENDBLK
  5
D5
330
D3
100
AcDbEntity
  8
0
100
AcDbBlockEnd
  0
BLOCK
  5
E0
330
DF
100
AcDbEntity
  8
0
100
AcDbBlockBegin
  2
SW_CENTERMARKSYMBOL_6
 70
     0
 10
0.0
 20
0.0
 30
0.0
  3
SW_CENTERMARKSYMBOL_6
  1

  0
LINE
  5
E2
330
DF
100
AcDbEntity
  8
FORMAT
 62
     0
100
AcDbLine
 10
0.0
 20
0.0
 30
0.0
 11
0.0
 21
2.5
 31
0.0
  0
LINE
  5
E3
330
DF
100
AcDbEntity
  8
FORMAT
 62
     0
100
AcDbLine
 10
0.0
 20
0.0
 30
0.0
 11
-2.5
 21
0.0
 31
0.0
  0
LINE
  5
E4
330
DF
100
AcDbEntity
  8
FORMAT
 62
     0
100
AcDbLine
 10
0.0
 20
0.0
 30
0.0
 11
0.0
 21
-2.5
 31
0.0
  0
LINE
  5
E5
330
DF
100
AcDbEntity
  8
FORMAT
 62
     0
100
AcDbLine
 10
0.0
 20
0.0
 30
0.0
 11
2.5
 21
0.0
 31
0.0
  0
LINE
  5
E6
330
DF
100
AcDbEntity
  8
FORMAT
 62
     0
100
AcDbLine
 10
0.0
 20
5.0
 30
0.0
 11
0.0
 21
14.5
 31
0.0
  0
LINE
  5
E7
330
DF
100
AcDbEntity
  8
FORMAT
 62
     0
100
AcDbLine
 10
-5.0
 20
0.0
 30
0.0
 11
-14.5
 21
0.0
 31
0.0
  0
LINE
  5
E8
330
DF
100
AcDbEntity
  8
FORMAT
 62
     0
100
AcDbLine
 10
0.0
 20
-5.0
 30
0.0
 11
0.0
 21
-14.5
 31
0.0
  0
LINE
  5
E9
330
DF
100
AcDbEntity
  8
FORMAT
 62
     0
100
AcDbLine
 10
5.0
 20
0.0
 30
0.0
 11
14.5
 21
0.0
 31
0.0
  0
ENDBLK
  5
E1
330
DF
100
AcDbEntity
  8
0
100
AcDbBlockEnd
  0
BLOCK
  5
EC
330
EB
100
AcDbEntity
  8
0
100
AcDbBlockBegin
  2
SW_CENTERMARKSYMBOL_7
 70
     0
 10
0.0
 20
0.0
 30
0.0
  3
SW_CENTERMARKSYMBOL_7
  1

  0
LINE
  5
EE
330
EB
100
AcDbEntity
  8
FORMAT
 62
     0
100
AcDbLine
 10
0.0
 20
0.0
 30
0.0
 11
0.0
 21
2.5
 31
0.0
  0
LINE
  5
EF
330
EB
100
AcDbEntity
  8
FORMAT
 62
     0
100
AcDbLine
 10
0.0
 20
0.0
 30
0.0
 11
-2.5
 21
0.0
 31
0.0
  0
LINE
  5
F0
330
EB
100
AcDbEntity
  8
FORMAT
 62
     0
100
AcDbLine
 10
0.0
 20
0.0
 30
0.0
 11
0.0
 21
-2.5
 31
0.0
  0
LINE
  5
F1
330
EB
100
AcDbEntity
  8
FORMAT
 62
     0
100
AcDbLine
 10
0.0
 20
0.0
 30
0.0
 11
2.5
 21
0.0
 31
0.0
  0
LINE
  5
F2
330
EB
100
AcDbEntity
  8
FORMAT
 62
     0
100
AcDbLine
 10
0.0
 20
5.0
 30
0.0
 11
0.0
 21
14.5
 31
0.0
  0
LINE
  5
F3
330
EB
100
AcDbEntity
  8
FORMAT
 62
     0
100
AcDbLine
 10
-5.0
 20
0.0
 30
0.0
 11
-14.5
 21
0.0
 31
0.0
  0
LINE
  5
F4
330
EB
100
AcDbEntity
  8
FORMAT
 62
     0
100
AcDbLine
 10
0.0
 20
-5.0
 30
0.0
 11
0.0
 21
-14.5
 31
0.0
  0
LINE
  5
F5
330
EB
100
AcDbEntity
  8
FORMAT
 62
     0
100
AcDbLine
 10
5.0
 20
0.0
 30
0.0
 11
14.5
 21
0.0
 31
0.0
  0
ENDBLK
  5
ED
330
EB
100
AcDbEntity
  8
0
100
AcDbBlockEnd
  0
BLOCK
  5
F8
330
F7
100
AcDbEntity
  8
0
100
AcDbBlockBegin
  2
SW_CENTERMARKSYMBOL_8
 70
     0
 10
0.0
 20
0.0
 30
0.0
  3
SW_CENTERMARKSYMBOL_8
  1

  0
LINE
  5
FA
330
F7
100
AcDbEntity
  8
FORMAT
 62
     0
100
AcDbLine
 10
0.0
 20
0.0
 30
0.0
 11
0.0
 21
2.5
 31
0.0
  0
LINE
  5
FB
330
F7
100
AcDbEntity
  8
FORMAT
 62
     0
100
AcDbLine
 10
0.0
 20
0.0
 30
0.0
 11
-2.5
 21
0.0
 31
0.0
  0
LINE
  5
FC
330
F7
100
AcDbEntity
  8
FORMAT
 62
     0
100
AcDbLine
 10
0.0
 20
0.0
 30
0.0
 11
0.0
 21
-2.5
 31
0.0
  0
LINE
  5
FD
330
F7
100
AcDbEntity
  8
FORMAT
 62
     0
100
AcDbLine
 10
0.0
 20
0.0
 30
0.0
 11
2.5
 21
0.0
 31
0.0
  0
LINE
  5
FE
330
F7
100
AcDbEntity
  8
FORMAT
 62
     0
100
AcDbLine
 10
0.0
 20
5.0
 30
0.0
 11
0.0
 21
14.5
 31
0.0
  0
LINE
  5
FF
330
F7
100
AcDbEntity
  8
FORMAT
 62
     0
100
AcDbLine
 10
-5.0
 20
0.0
 30
0.0
 11
-14.5
 21
0.0
 31
0.0
  0
LINE
  5
100
330
F7
100
AcDbEntity
  8
FORMAT
 62
     0
100
AcDbLine
 10
0.0
 20
-5.0
 30
0.0
 11
0.0
 21
-14.5
 31
0.0
  0
LINE
  5
101
330
F7
100
AcDbEntity
  8
FORMAT
 62
     0
100
AcDbLine
 10
5.0
 20
0.0
 30
0.0
 11
14.5
 21
0.0
 31
0.0
  0
ENDBLK
  5
F9
330
F7
100
AcDbEntity
  8
0
100
AcDbBlockEnd
  0
ENDSEC
  0
SECTION
  2
ENTITIES
  0
CIRCLE
  5
83
330
1F
100
AcDbEntity
  8
0
  6
Continuous
 62
     7
370
    25
100
AcDbCircle
 10
-7.9067448951
 20
99.0705657812
 30
0.0
 40
11.99999999999998
  0
CIRCLE
  5
84
330
1F
100
AcDbEntity
  8
0
  6
Continuous
 62
     7
370
    25
100
AcDbCircle
 10
246.878942197
 20
-6.4651213109
 30
0.0
 40
12.0
  0
CIRCLE
  5
85
330
1F
100
AcDbEntity
  8
0
  6
Continuous
 62
     7
370
    25
100
AcDbCircle
 10
246.878942197
 20
204.6062528733
 30
0.0
 40
12.0
  0
CIRCLE
  5
86
330
1F
100
AcDbEntity
  8
0
  6
Continuous
 62
     7
370
    25
100
AcDbCircle
 10
141.3432551049
 20
248.3205657812
 30
0.0
 40
12.00000000000003
  0
CIRCLE
  5
87
330
1F
100
AcDbEntity
  8
0
  6
Continuous
 62
     7
370
    25
100
AcDbCircle
 10
141.3432551049
 20
99.0705657812
 30
0.0
 40
171.4999999999999
  0
CIRCLE
  5
88
330
1F
100
AcDbEntity
  8
0
  6
Continuous
 62
     7
370
    25
100
AcDbCircle
 10
141.3432551049
 20
99.0705657812
 30
0.0
 40
119.0
  0
CIRCLE
  5
89
330
1F
100
AcDbEntity
  8
0
  6
Continuous
 62
     7
370
    25
100
AcDbCircle
 10
141.3432551049
 20
-50.1794342188
 30
0.0
 40
11.99999999999997
  0
CIRCLE
  5
8A
330
1F
100
AcDbEntity
  8
0
  6
Continuous
 62
     7
370
    25
100
AcDbCircle
 10
290.5932551049
 20
99.0705657812
 30
0.0
 40
12.0
  0
CIRCLE
  5
8B
330
1F
100
AcDbEntity
  8
0
  6
Continuous
 62
     7
370
    25
100
AcDbCircle
 10
35.8075680128
 20
-6.4651213109
 30
0.0
 40
11.99999999999999
  0
CIRCLE
  5
8C
330
1F
100
AcDbEntity
  8
0
  6
Continuous
 62
     7
370
    25
100
AcDbCircle
 10
35.8075680128
 20
204.6062528733
 30
0.0
 40
11.99999999999999
  0
CIRCLE
  5
8D
330
1F
100
AcDbEntity
  8
0
  6
Continuous
 62
     7
370
    25
100
AcDbCircle
 10
141.3432551049
 20
-50.1794342188
 30
0.0
 40
10.99999999999997
  0
CIRCLE
  5
8E
330
1F
100
AcDbEntity
  8
0
  6
Continuous
 62
     7
370
    25
100
AcDbCircle
 10
141.3432551049
 20
99.0705657812
 30
0.0
 40
118.0
  0
CIRCLE
  5
8F
330
1F
100
AcDbEntity
  8
0
  6
Continuous
 62
     7
370
    25
100
AcDbCircle
 10
141.3432551049
 20
99.0705657812
 30
0.0
 40
172.4999999999999
  0
CIRCLE
  5
90
330
1F
100
AcDbEntity
  8
0
  6
Continuous
 62
     7
370
    25
100
AcDbCircle
 10
141.3432551049
 20
248.3205657812
 30
0.0
 40
11.00000000000003
  0
CIRCLE
  5
91
330
1F
100
AcDbEntity
  8
0
  6
Continuous
 62
     7
370
    25
100
AcDbCircle
 10
246.878942197
 20
204.6062528733
 30
0.0
 40
11.0
  0
CIRCLE
  5
92
330
1F
100
AcDbEntity
  8
0
  6
Continuous
 62
     7
370
    25
100
AcDbCircle
 10
35.8075680128
 20
204.6062528733
 30
0.0
 40
10.99999999999999
  0
CIRCLE
  5
93
330
1F
100
AcDbEntity
  8
0
  6
Continuous
 62
     7
370
    25
100
AcDbCircle
 10
35.8075680128
 20
-6.4651213109
 30
0.0
 40
10.99999999999999
  0
CIRCLE
  5
94
330
1F
100
AcDbEntity
  8
0
  6
Continuous
 62
     7
370
    25
100
AcDbCircle
 10
290.5932551049
 20
99.0705657812
 30
0.0
 40
11.0
  0
CIRCLE
  5
95
330
1F
100
AcDbEntity
  8
0
  6
Continuous
 62
     7
370
    25
100
AcDbCircle
 10
-7.9067448951
 20
99.0705657812
 30
0.0
 40
10.99999999999998
  0
CIRCLE
  5
96
330
1F
100
AcDbEntity
  8
0
  6
Continuous
 62
     7
370
    25
100
AcDbCircle
 10
246.878942197
 20
-6.4651213109
 30
0.0
 40
11.0
  0
INSERT
  5
A2
330
1F
100
AcDbEntity
  8
FORMAT
 62
     7
100
AcDbBlockReference
  2
SW_CENTERMARKSYMBOL_0
 10
141.3432551049
 20
99.0705657812
 30
0.0
  0
INSERT
  5
AE
330
1F
100
AcDbEntity
  8
FORMAT
 62
     7
100
AcDbBlockReference
  2
SW_CENTERMARKSYMBOL_1
 10
141.3432551049
 20
248.3205657812
 30
0.0
  0
INSERT
  5
BA
330
1F
100
AcDbEntity
  8
FORMAT
 62
     7
100
AcDbBlockReference
  2
SW_CENTERMARKSYMBOL_2
 10
246.878942197
 20
204.6062528733
 30
0.0
  0
INSERT
  5
C6
330
1F
100
AcDbEntity
  8
FORMAT
 62
     7
100
AcDbBlockReference
  2
SW_CENTERMARKSYMBOL_3
 10
290.5932551049
 20
99.0705657812
 30
0.0
  0
INSERT
  5
D2
330
1F
100
AcDbEntity
  8
FORMAT
 62
     7
100
AcDbBlockReference
  2
SW_CENTERMARKSYMBOL_4
 10
246.878942197
 20
-6.4651213109
 30
0.0
  0
INSERT
  5
DE
330
1F
100
AcDbEntity
  8
FORMAT
 62
     7
100
AcDbBlockReference
  2
SW_CENTERMARKSYMBOL_5
 10
35.8075680128
 20
204.6062528733
 30
0.0
  0
INSERT
  5
EA
330
1F
100
AcDbEntity
  8
FORMAT
 62
     7
100
AcDbBlockReference
  2
SW_CENTERMARKSYMBOL_6
 10
-7.9067448951
 20
99.0705657812
 30
0.0
  0
INSERT
  5
F6
330
1F
100
AcDbEntity
  8
FORMAT
 62
     7
100
AcDbBlockReference
  2
SW_CENTERMARKSYMBOL_7
 10
35.8075680128
 20
-6.4651213109
 30
0.0
  0
INSERT
  5
102
330
1F
100
AcDbEntity
  8
FORMAT
 62
     7
100
AcDbBlockReference
  2
SW_CENTERMARKSYMBOL_8
 10
141.3432551049
 20
-50.1794342188
 30
0.0
  0
LINE
  5
103
330
1F
100
AcDbEntity
  8
0
  6
Continuous
 62
     7
370
    25
100
AcDbLine
 10
-232.2316079801
 20
271.5705657812
 30
0.0
 11
-257.2316079801
 21
271.5705657812
 31
0.0
  0
LINE
  5
104
330
1F
100
AcDbEntity
  8
0
  6
Continuous
 62
     7
370
    25
100
AcDbLine
 10
-257.2316079801
 20
-73.4294342188
 30
0.0
 11
-232.2316079801
 21
-73.4294342188
 31
0.0
  0
ARC
  5
105
330
1F
100
AcDbEntity
  8
0
  6
Continuous
 62
     7
370
    25
100
AcDbCircle
 10
-232.2316079801
 20
-72.4294342188
 30
0.0
 40
1.0
100
AcDbArc
 50
270.0
 51
0.0
  0
ARC
  5
106
330
1F
100
AcDbEntity
  8
0
  6
Continuous
 62
     7
370
    25
100
AcDbCircle
 10
-232.2316079801
 20
270.5705657812
 30
0.0
 40
1.0
100
AcDbArc
 50
0.0
 51
90.0
  0
ARC
  5
107
330
1F
100
AcDbEntity
  8
0
  6
Continuous
 62
     7
370
    25
100
AcDbCircle
 10
-257.2316079801
 20
-72.4294342188
 30
0.0
 40
1.0
100
AcDbArc
 50
180.0
 51
270.0
  0
ARC
  5
108
330
1F
100
AcDbEntity
  8
0
  6
Continuous
 62
     7
370
    25
100
AcDbCircle
 10
-257.2316079801
 20
270.5705657812
 30
0.0
 40
1.0
100
AcDbArc
 50
90.0
 51
180.0
  0
LINE
  5
109
330
1F
100
AcDbEntity
  8
0
  6
Continuous
 62
     7
370
    25
100
AcDbLine
 10
-231.2316079801
 20
99.0705657812
 30
0.0
 11
-231.2316079801
 21
-72.4294342188
 31
0.0
  0
LINE
  5
10A
330
1F
100
AcDbEntity
  8
0
  6
Continuous
 62
     7
370
    25
100
AcDbLine
 10
-231.2316079801
 20
270.5705657812
 30
0.0
 11
-231.2316079801
 21
99.0705657812
 31
0.0
  0
LINE
  5
10B
330
1F
100
AcDbEntity
  8
0
  6
Continuous
 62
     7
370
    25
100
AcDbLine
 10
-258.2316079801
 20
99.0705657812
 30
0.0
 11
-258.2316079801
 21
270.5705657812
 31
0.0
  0
LINE
  5
10C
330
1F
100
AcDbEntity
  8
0
  6
Continuous
 62
     7
370
    25
100
AcDbLine
 10
-258.2316079801
 20
-72.4294342188
 30
0.0
 11
-258.2316079801
 21
99.0705657812
 31
0.0
  0
LINE
  5
10D
330
1F
100
AcDbEntity
  8
0
  6
Continuous
 62
     1
370
    25
100
AcDbLine
 10
-257.2316079801
 20
99.0705657812
 30
0.0
 11
-257.2316079801
 21
-73.4294342188
 31
0.0
  0
LINE
  5
10E
330
1F
100
AcDbEntity
  8
0
  6
Continuous
 62
     1
370
    25
100
AcDbLine
 10
-257.2316079801
 20
271.5705657812
 30
0.0
 11
-257.2316079801
 21
99.0705657812
 31
0.0
  0
LINE
  5
10F
330
1F
100
AcDbEntity
  8
0
  6
Continuous
 62
     1
370
    25
100
AcDbLine
 10
-232.2316079801
 20
99.0705657812
 30
0.0
 11
-232.2316079801
 21
271.5705657812
 31
0.0
  0
LINE
  5
110
330
1F
100
AcDbEntity
  8
0
  6
Continuous
 62
     1
370
    25
100
AcDbLine
 10
-232.2316079801
 20
-73.4294342188
 30
0.0
 11
-232.2316079801
 21
99.0705657812
 31
0.0
  0
LINE
  5
111
330
1F
100
AcDbEntity
  8
0
  6
Continuous
 62
     7
370
    25
100
AcDbLine
 10
506.1523156884
 20
-73.4294342188
 30
0.0
 11
531.1523156884
 21
-73.4294342188
 31
0.0
  0
LINE
  5
112
330
1F
100
AcDbEntity
  8
0
  6
Continuous
 62
     7
370
    25
100
AcDbLine
 10
531.1523156884
 20
271.5705657812
 30
0.0
 11
506.1523156884
 21
271.5705657812
 31
0.0
  0
ARC
  5
113
330
1F
100
AcDbEntity
  8
0
  6
Continuous
 62
     7
370
    25
100
AcDbCircle
 10
506.1523156884
 20
270.5705657812
 30
0.0
 40
1.0
100
AcDbArc
 50
90.0
 51
180.0
  0
ARC
  5
114
330
1F
100
AcDbEntity
  8
0
  6
Continuous
 62
     7
370
    25
100
AcDbCircle
 10
506.1523156884
 20
-72.4294342188
 30
0.0
 40
1.0
100
AcDbArc
 50
180.0
 51
270.0
  0
ARC
  5
115
330
1F
100
AcDbEntity
  8
0
  6
Continuous
 62
     7
370
    25
100
AcDbCircle
 10
531.1523156884
 20
270.5705657812
 30
0.0
 40
1.0
100
AcDbArc
 50
0.0
 51
90.0
  0
ARC
  5
116
330
1F
100
AcDbEntity
  8
0
  6
Continuous
 62
     7
370
    25
100
AcDbCircle
 10
531.1523156884
 20
-72.4294342188
 30
0.0
 40
1.0
100
AcDbArc
 50
270.0
 51
0.0
  0
LINE
  5
117
330
1F
100
AcDbEntity
  8
0
  6
Continuous
 62
     7
370
    25
100
AcDbLine
 10
505.1523156884
 20
-72.4294342188
 30
0.0
 11
505.1523156884
 21
270.5705657812
 31
0.0
  0
LINE
  5
118
330
1F
100
AcDbEntity
  8
0
  6
Continuous
 62
     7
370
    25
100
AcDbLine
 10
532.1523156884
 20
270.5705657812
 30
0.0
 11
532.1523156884
 21
-72.4294342188
 31
0.0
  0
LINE
  5
119
330
1F
100
AcDbEntity
  8
0
  6
Continuous
 62
     1
370
    25
100
AcDbLine
 10
531.1523156884
 20
-73.4294342188
 30
0.0
 11
531.1523156884
 21
271.5705657812
 31
0.0
  0
LINE
  5
11A
330
1F
100
AcDbEntity
  8
0
  6
Continuous
 62
     1
370
    25
100
AcDbLine
 10
506.1523156884
 20
271.5705657812
 30
0.0
 11
506.1523156884
 21
-73.4294342188
 31
0.0
  0
LINE
  5
11B
330
1F
100
AcDbEntity
  8
0
  6
Continuous
 62
     7
370
    25
100
AcDbLine
 10
313.8432551049
 20
443.414910098
 30
0.0
 11
313.8432551049
 21
468.414910098
 31
0.0
  0
LINE
  5
11C
330
1F
100
AcDbEntity
  8
0
  6
Continuous
 62
     7
370
    25
100
AcDbLine
 10
-31.1567448951
 20
468.414910098
 30
0.0
 11
-31.1567448951
 21
443.414910098
 31
0.0
  0
ARC
  5
11D
330
1F
100
AcDbEntity
  8
0
  6
Continuous
 62
     7
370
    25
100
AcDbCircle
 10
-30.1567448951
 20
443.414910098
 30
0.0
 40
1.0
100
AcDbArc
 50
180.0
 51
270.0
  0
ARC
  5
11E
330
1F
100
AcDbEntity
  8
0
  6
Continuous
 62
     7
370
    25
100
AcDbCircle
 10
312.8432551049
 20
443.414910098
 30
0.0
 40
1.0
100
AcDbArc
 50
270.0
 51
0.0
  0
ARC
  5
11F
330
1F
100
AcDbEntity
  8
0
  6
Continuous
 62
     7
370
    25
100
AcDbCircle
 10
-30.1567448951
 20
468.414910098
 30
0.0
 40
1.0
100
AcDbArc
 50
90.0
 51
180.0
  0
ARC
  5
120
330
1F
100
AcDbEntity
  8
0
  6
Continuous
 62
     7
370
    25
100
AcDbCircle
 10
312.8432551049
 20
468.414910098
 30
0.0
 40
1.0
100
AcDbArc
 50
0.0
 51
90.0
  0
LINE
  5
121
330
1F
100
AcDbEntity
  8
0
  6
Continuous
 62
     7
370
    25
100
AcDbLine
 10
312.8432551049
 20
442.414910098
 30
0.0
 11
-30.1567448951
 21
442.414910098
 31
0.0
  0
LINE
  5
122
330
1F
100
AcDbEntity
  8
0
  6
Continuous
 62
     7
370
    25
100
AcDbLine
 10
-30.1567448942
 20
469.414910098
 30
0.0
 11
312.8432551049
 21
469.414910098
 31
0.0
  0
LINE
  5
123
330
1F
100
AcDbEntity
  8
0
  6
Continuous
 62
     1
370
    25
100
AcDbLine
 10
313.8432551049
 20
468.414910098
 30
0.0
 11
-31.1567448951
 21
468.414910098
 31
0.0
  0
LINE
  5
124
330
1F
100
AcDbEntity
  8
0
  6
Continuous
 62
     1
370
    25
100
AcDbLine
 10
-31.1567448951
 20
443.414910098
 30
0.0
 11
313.8432551049
 21
443.414910098
 31
0.0
  0
LINE
  5
125
330
1F
100
AcDbEntity
  8
0
  6
Continuous
 62
     7
370
    25
100
AcDbLine
 10
-31.1567448951
 20
-293.1143368616
 30
0.0
 11
-31.1567448951
 21
-318.1143368616
 31
0.0
  0
LINE
  5
126
330
1F
100
AcDbEntity
  8
0
  6
Continuous
 62
     7
370
    25
100
AcDbLine
 10
313.8432551049
 20
-318.1143368616
 30
0.0
 11
313.8432551049
 21
-293.1143368616
 31
0.0
  0
ARC
  5
127
330
1F
100
AcDbEntity
  8
0
  6
Continuous
 62
     7
370
    25
100
AcDbCircle
 10
312.8432551049
 20
-293.1143368616
 30
0.0
 40
1.0
100
AcDbArc
 50
0.0
 51
90.0
  0
ARC
  5
128
330
1F
100
AcDbEntity
  8
0
  6
Continuous
 62
     7
370
    25
100
AcDbCircle
 10
-30.1567448951
 20
-293.1143368616
 30
0.0
 40
1.0
100
AcDbArc
 50
90.0
 51
180.0
  0
ARC
  5
129
330
1F
100
AcDbEntity
  8
0
  6
Continuous
 62
     7
370
    25
100
AcDbCircle
 10
312.8432551049
 20
-318.1143368616
 30
0.0
 40
1.0
100
AcDbArc
 50
270.0
 51
0.0
  0
ARC
  5
12A
330
1F
100
AcDbEntity
  8
0
  6
Continuous
 62
     7
370
    25
100
AcDbCircle
 10
-30.1567448951
 20
-318.1143368616
 30
0.0
 40
1.0
100
AcDbArc
 50
180.0
 51
270.0
  0
LINE
  5
12B
330
1F
100
AcDbEntity
  8
0
  6
Continuous
 62
     7
370
    25
100
AcDbLine
 10
-30.1567448942
 20
-292.1143368616
 30
0.0
 11
312.8432551049
 21
-292.1143368616
 31
0.0
  0
LINE
  5
12C
330
1F
100
AcDbEntity
  8
0
  6
Continuous
 62
     7
370
    25
100
AcDbLine
 10
312.8432551049
 20
-319.1143368616
 30
0.0
 11
-30.1567448951
 21
-319.1143368616
 31
0.0
  0
LINE
  5
12D
330
1F
100
AcDbEntity
  8
0
  6
Continuous
 62
     1
370
    25
100
AcDbLine
 10
-31.1567448951
 20
-318.1143368616
 30
0.0
 11
313.8432551049
 21
-318.1143368616
 31
0.0
  0
LINE
  5
12E
330
1F
100
AcDbEntity
  8
0
  6
Continuous
 62
     1
370
    25
100
AcDbLine
 10
313.8432551049
 20
-293.1143368616
 30
0.0
 11
-31.1567448951
 21
-293.1143368616
 31
0.0
  0
SPLINE
  5
12F
330
1F
100
AcDbEntity
  8
0
  6
Continuous
 62
     7
370
    25
100
AcDbSpline
210
0.0
220
0.0
230
1.0
 70
     8
 71
     3
 72
    71
 73
    67
 74
     0
 42
0.00000001
 43
0.00000001
 40
0.0
 40
0.0
 40
0.0
 40
0.0
 40
0.0115322314124652
 40
0.0273008546409887
 40
0.0430799703769968
 40
0.0588688897604372
 40
0.0746665693847284
 40
0.0904717660323588
 40
0.10628316822914
 40
0.1220994961501402
 40
0.1379195689912135
 40
0.1537423437393181
 40
0.1695669315130784
 40
0.1853925979966579
 40
0.201218753737728
 40
0.2170448372065976
 40
0.232870508040523
 40
0.2486955404279468
 40
0.2645197809067114
 40
0.280343134226978
 40
0.2961655512927657
 40
0.3119870191157098
 40
0.3278075526021442
 40
0.3436271879441178
 40
0.3594459773742265
 40
0.375263985055823
 40
0.3910812839032829
 40
0.4068979531540267
 40
0.422714076541401
 40
0.4385297409426064
 40
0.4543450353979324
 40
0.4701600504160454
 40
0.4859748774952288
 40
0.5017896088022924
 40
0.5176043369598327
 40
0.5334191354248299
 40
0.5492340858490047
 40
0.565049281473644
 40
0.580864815479342
 40
0.5966807807435134
 40
0.6124972694765024
 40
0.6283143726821332
 40
0.6441321793802819
 40
0.6599507755157464
 40
0.6757702424612303
 40
0.6915906550020017
 40
0.7074120786660627
 40
0.7232345662366133
 40
0.7390581532547452
 40
0.7548828522920733
 40
0.7707086457500991
 40
0.7865354769337345
 40
0.8023632391629474
 40
0.8181917627487162
 40
0.8340207997947219
 40
0.8498499416483987
 40
0.8656786175192094
 40
0.8815061905065702
 40
0.8973318700880317
 40
0.9131547032742834
 40
0.928973577287264
 40
0.9447872399513837
 40
0.9605943446253208
 40
0.9763935258130836
 40
0.992183508755281
 40
1.0
 40
1.0
 40
1.0
 40
1.0
 10
616.3740761135901
 20
-116.2502903133973
 30
0.0
 10
615.2986846340453
 20
-116.1357872482396
 30
0.0
 10
612.752854133846
 20
-115.8647181527616
 30
0.0
 10
608.6164430448247
 20
-115.758558298308
 30
0.0
 10
603.9924686437982
 20
-115.882197508972
 30
0.0
 10
599.2775676529758
 20
-116.2909548127856
 30
0.0
 10
594.4847241807054
 20
-116.9721775454683
 30
0.0
 10
589.621232745085
 20
-117.9279736117105
 30
0.0
 10
584.6960986856953
 20
-119.1558148693329
 30
0.0
 10
579.7180075352694
 20
-120.6537485711469
 30
0.0
 10
574.6958298981504
 20
-122.4190164950632
 30
0.0
 10
569.6384535181244
 20
-124.4484452960824
 30
0.0
 10
564.5548021640132
 20
-126.7383630154317
 30
0.0
 10
559.4538095518626
 20
-129.2846420407354
 30
0.0
 10
554.3444198674559
 20
-132.0827007967112
 30
0.0
 10
549.2355636425677
 20
-135.1275233631659
 30
0.0
 10
544.1361445732159
 20
-138.4136732338598
 30
0.0
 10
539.055018304899
 20
-141.9353139315426
 30
0.0
 10
534.0009938071917
 20
-145.686213735128
 30
0.0
 10
528.9828246409214
 20
-149.6597547487122
 30
0.0
 10
524.0091968943889
 20
-153.8489438031099
 30
0.0
 10
519.0887166352178
 20
-158.2464237147264
 30
0.0
 10
514.2298969564173
 20
-162.8444850292683
 30
0.0
 10
509.4411447108009
 20
-167.6350783382413
 30
0.0
 10
504.7307470335457
 20
-172.6098272186283
 30
0.0
 10
500.106857750081
 20
-177.7600418187961
 30
0.0
 10
495.5774837600071
 20
-183.0767330929228
 30
0.0
 10
491.150471479405
 20
-188.550627671349
 30
0.0
 10
486.833493415181
 20
-194.1721833436637
 30
0.0
 10
482.6340349367599
 20
-199.9316051240343
 30
0.0
 10
478.5593813029107
 20
-205.8188618632904
 30
0.0
 10
474.6166049949138
 20
-211.8237033688788
 30
0.0
 10
470.8125534016033
 20
-217.9356779916033
 30
0.0
 10
467.1538368972618
 20
-224.1441506360386
 30
0.0
 10
463.6468187880865
 20
-230.4383185681968
 30
0.0
 10
460.2976033623726
 20
-236.8072310442206
 30
0.0
 10
457.1120243282785
 20
-243.2398098679126
 30
0.0
 10
454.0956336227976
 20
-249.7248714341041
 30
0.0
 10
451.2536927494236
 20
-256.2511452256329
 30
0.0
 10
448.5911646970668
 20
-262.8072918716707
 30
0.0
 10
446.1127056400578
 20
-269.3819228390405
 30
0.0
 10
443.8226572487659
 20
-275.9636201587704
 30
0.0
 10
441.725039626559
 20
-282.540956127499
 30
0.0
 10
439.8235448843285
 20
-289.1025129194254
 30
0.0
 10
438.1215313581899
 20
-295.6369020394429
 30
0.0
 10
436.6220184684426
 20
-302.1327835425492
 30
0.0
 10
435.3276822078537
 20
-308.5788849386942
 30
0.0
 10
434.2408512340347
 20
-314.9640196964104
 30
0.0
 10
433.3635035230571
 20
-321.2771052538395
 30
0.0
 10
432.6972635191893
 20
-327.5071804426913
 30
0.0
 10
432.2433996854238
 20
-333.6434222343505
 30
0.0
 10
432.0028223297818
 20
-339.6751617195088
 30
0.0
 10
431.9760815198317
 20
-345.5918992799297
 30
0.0
 10
432.1633649298423
 20
-351.3833188515353
 30
0.0
 10
432.5644945748676
 20
-357.0392938190531
 30
0.0
 10
433.178921854265
 20
-362.5498946799758
 30
0.0
 10
434.0057196880462
 20
-367.905413660623
 30
0.0
 10
435.0435851196236
 20
-373.0963756167418
 30
0.0
 10
436.2908065379502
 20
-378.1135904976751
 30
0.0
 10
437.7453581169291
 20
-382.9480323974664
 30
0.0
 10
439.4045043321467
 20
-387.5913389430351
 30
0.0
 10
441.2662342847092
 20
-392.0340431270535
 30
0.0
 10
443.3238753005826
 20
-396.2722837323334
 30
0.0
 10
445.5861598734513
 20
-400.2829163098645
 30
0.0
 10
447.5962000853033
 20
-403.4720216566841
 30
0.0
 10
448.921321876608
 20
-405.2345097015161
 30
0.0
 10
449.3600914615069
 20
-405.8180984349402
 30
0.0
  0
LINE
  5
130
330
1F
100
AcDbEntity
  8
0
  6
Continuous
 62
     7
370
    25
100
AcDbLine
 10
658.1861699107
 20
-134.1709387423
 30
0.0
 11
640.508500381
 21
-123.9658373445
 31
0.0
  0
LINE
  5
131
330
1F
100
AcDbEntity
  8
0
  6
Continuous
 62
     7
370
    25
100
AcDbLine
 10
468.0225190013
 20
-422.7526948659
 30
0.0
 11
485.7001885309
 21
-432.9577962637
 31
0.0
  0
SPLINE
  5
132
330
1F
100
AcDbEntity
  8
0
  6
Continuous
 62
     7
370
    25
100
AcDbSpline
210
0.0
220
0.0
230
1.0
 70
     8
 71
     3
 72
    58
 73
    54
 74
     0
 42
0.00000001
 43
0.00000001
 40
0.0
 40
0.0
 40
0.0
 40
0.0
 40
0.0129438890879565
 40
0.0327118945670584
 40
0.0524931343398117
 40
0.0722868296726031
 40
0.0920917266857491
 40
0.1119062930965587
 40
0.1317288885087924
 40
0.1515578959393009
 40
0.1713918122470132
 40
0.191229301705571
 40
0.2110692202092271
 40
0.2309106183354903
 40
0.2507527306966686
 40
0.27059485141624
 40
0.2904365067385298
 40
0.3102773981299433
 40
0.3301173206682691
 40
0.349956144929446
 40
0.3697938014756929
 40
0.3896302678903326
 40
0.4094655581507491
 40
0.4292997140575757
 40
0.4491327984188609
 40
0.4689648896994443
 40
0.4887960778731755
 40
0.5086264612492267
 40
0.5284561440782639
 40
0.5482852347761752
 40
0.5681138446313804
 40
0.5879420868856844
 40
0.6077700760980613
 40
0.6275979277164133
 40
0.6474257577939079
 40
0.6672536642496905
 40
0.6870817435521218
 40
0.7069101125946639
 40
0.7267388882313873
 40
0.7465681869903468
 40
0.7663981246446192
 40
0.7862288155739623
 40
0.8060603718408409
 40
0.8258929018887816
 40
0.8457265087507877
 40
0.8655612876310721
 40
0.885397322694099
 40
0.9052346828616559
 40
0.9250734163827113
 40
0.9449135439049078
 40
0.9647550497463987
 40
0.9845978710514727
 40
1.0
 40
1.0
 40
1.0
 40
1.0
 10
509.5080587503635
 20
-440.6324390532851
 30
0.0
 10
510.4675206232916
 20
-440.7433797012778
 30
0.0
 10
512.8922799375179
 20
-441.0237497473808
 30
0.0
 10
516.9009451247931
 20
-441.1599897730661
 30
0.0
 10
521.5105360633719
 20
-441.0792123959133
 30
0.0
 10
526.2128939139527
 20
-440.7118029833553
 30
0.0
 10
530.9943113831265
 20
-440.0721989087975
 30
0.0
 10
535.8477201924351
 20
-439.157710867279
 30
0.0
 10
540.7640792158271
 20
-437.9709208661092
 30
0.0
 10
545.7347308171164
 20
-436.5136671444279
 30
0.0
 10
550.750809672333
 20
-434.7886413743794
 30
0.0
 10
555.803434895529
 20
-432.7989406533144
 30
0.0
 10
560.8836855651255
 20
-430.5481664848111
 30
0.0
 10
565.9826289776065
 20
-428.0403775090826
 30
0.0
 10
571.0913218257278
 20
-425.2800876620132
 30
0.0
 10
576.200830437209
 20
-422.2722481293994
 30
0.0
 10
581.3022463872612
 20
-419.0222326288483
 30
0.0
 10
586.386705933036
 20
-415.5358180840842
 30
0.0
 10
591.4453927422092
 20
-411.8191768740117
 30
0.0
 10
596.4695441122374
 20
-407.8788691809856
 30
0.0
 10
601.4504629557522
 20
-403.72183212876
 30
0.0
 10
606.3795302800601
 20
-399.3553685866771
 30
0.0
 10
611.2482180854327
 20
-394.7871355060414
 30
0.0
 10
616.0481025899533
 20
-390.025131694248
 30
0.0
 10
620.77087768127
 20
-385.0776849714382
 30
0.0
 10
625.4083684973774
 20
-379.9534386829132
 30
0.0
 10
629.9525450445725
 20
-374.6613375622943
 30
0.0
 10
634.3955357689171
 20
-369.2106129560819
 30
0.0
 10
638.7296410062513
 20
-363.610767431433
 30
0.0
 10
642.9473462442319
 20
-357.8715587967179
 30
0.0
 10
647.0413351375315
 20
-352.0029835697013
 30
0.0
 10
651.0045022240569
 20
-346.0152599318048
 30
0.0
 10
654.8299652958502
 20
-339.9188102092597
 30
0.0
 10
658.5110773830812
 20
-333.7242429239386
 30
0.0
 10
662.0414372134611
 20
-327.4423364155452
 30
0.0
 10
665.41490048525
 20
-321.0840204794363
 30
0.0
 10
668.6255919073975
 20
-314.6603552729408
 30
0.0
 10
671.667916210838
 20
-308.182509949749
 30
0.0
 10
674.5365675028031
 20
-301.6617429044431
 30
0.0
 10
677.2265371007894
 20
-295.1093843550428
 30
0.0
 10
679.7331219091699
 20
-288.536816670226
 30
0.0
 10
682.0519322546842
 20
-281.9554546140107
 30
0.0
 10
684.1788988486071
 20
-275.3767257495256
 30
0.0
 10
686.1102800423349
 20
-268.8120503875
 30
0.0
 10
687.8426649706274
 20
-262.2728236784076
 30
0.0
 10
689.3729890024613
 20
-255.7703904780637
 30
0.0
 10
690.6985002266498
 20
-249.3160483160686
 30
0.0
 10
691.8169057280844
 20
-242.9209469878479
 30
0.0
 10
692.7258439677107
 20
-236.5963759169156
 30
0.0
 10
693.4248698044889
 20
-230.3526065491349
 30
0.0
 10
693.9080589239636
 20
-224.2031308032286
 30
0.0
 10
694.1704638697084
 20
-218.6005270885898
 30
0.0
 10
694.1993631420218
 20
-215.0910304691763
 30
0.0
 10
694.2119921942827
 20
-213.5573719141864
 30
0.0
  0
SPLINE
  5
133
330
1F
100
AcDbEntity
  8
0
  6
Continuous
 62
     7
370
    25
100
AcDbSpline
210
0.0
220
0.0
230
1.0
 70
     8
 71
     3
 72
    21
 73
    17
 74
     0
 42
0.00000001
 43
0.00000001
 40
0.0
 40
0.0
 40
0.0
 40
0.0
 40
0.0412323555312849
 40
0.1195532053915768
 40
0.1978813047280737
 40
0.2762094998416266
 40
0.3545349584496364
 40
0.4328544182869954
 40
0.5111638476813951
 40
0.5894584086691854
 40
0.6677324814094449
 40
0.7459797812757585
 40
0.824193602411062
 40
0.9023672167818108
 40
0.9804944417797901
 40
1.0
 40
1.0
 40
1.0
 40
1.0
 10
694.2119921942827
 20
-213.5573719141864
 30
0.0
 10
694.2060270415435
 20
-212.5254177639146
 30
0.0
 10
694.1887310825463
 20
-209.5332669422493
 30
0.0
 10
693.996555663504
 20
-204.6768044169853
 30
0.0
 10
693.5654202186873
 20
-199.0410376767742
 30
0.0
 10
692.9181898253743
 20
-193.5536142695993
 30
0.0
 10
692.0595406925426
 20
-188.2222907269008
 30
0.0
 10
690.9898447942335
 20
-183.0570513534204
 30
0.0
 10
689.7111463115399
 20
-178.0668899082593
 30
0.0
 10
688.2254276497222
 20
-173.260871312884
 30
0.0
 10
686.5356293417823
 20
-168.6471471015152
 30
0.0
 10
684.6433574471963
 20
-164.2357176945694
 30
0.0
 10
682.5570756593805
 20
-160.0282284572729
 30
0.0
 10
680.2616772039447
 20
-156.0558255515923
 30
0.0
 10
678.4391095784316
 20
-153.1919484829691
 30
0.0
 10
677.3242270369162
 20
-151.7281880830693
 30
0.0
 10
677.1014903125762
 20
-151.4357508221456
 30
0.0
  0
SPLINE
  5
134
330
1F
100
AcDbEntity
  8
0
  6
Continuous
 62
     7
370
    25
100
AcDbSpline
210
0.0
220
0.0
230
1.0
 70
     8
 71
     3
 72
    18
 73
    14
 74
     0
 42
0.00000001
 43
0.00000001
 40
0.0
 40
0.0
 40
0.0
 40
0.0
 40
0.0509190282842174
 40
0.1460356384678866
 40
0.2410394283338325
 40
0.3359437385036002
 40
0.4307654848784347
 40
0.5255224106909151
 40
0.6202312317962273
 40
0.7149065976273479
 40
0.80956067062659
 40
0.9042031122508598
 40
1.0
 40
1.0
 40
1.0
 40
1.0
 10
625.9310034864117
 20
-182.7971405366135
 30
0.0
 10
626.3129616916075
 20
-183.3152913418241
 30
0.0
 10
627.4084168140514
 20
-184.8013464809604
 30
0.0
 10
629.0175776546419
 20
-187.507033938475
 30
0.0
 10
630.7657540884239
 20
-190.8848823770825
 30
0.0
 10
632.3108644330455
 20
-194.4833998502315
 30
0.0
 10
633.6604630977643
 20
-198.2790532459128
 30
0.0
 10
634.8083630594085
 20
-202.2662981706744
 30
0.0
 10
635.7521361531849
 20
-206.4344631768436
 30
0.0
 10
636.4905228907985
 20
-210.7726859930515
 30
0.0
 10
637.0164127601768
 20
-215.273153453318
 30
0.0
 10
637.3489965699331
 20
-219.9321450712705
 30
0.0
 10
637.390392976312
 20
-223.1595158678932
 30
0.0
 10
637.4112166523254
 20
-224.7829834517487
 30
0.0
  0
SPLINE
  5
135
330
1F
100
AcDbEntity
  8
0
  6
Continuous
 62
     7
370
    25
100
AcDbSpline
210
0.0
220
0.0
230
1.0
 70
     8
 71
     3
 72
    50
 73
    46
 74
     0
 42
0.00000001
 43
0.00000001
 40
0.0
 40
0.0
 40
0.0
 40
0.0
 40
0.0124902960302856
 40
0.0362481209468103
 40
0.0600095808410646
 40
0.0837730148059724
 40
0.1075387592727211
 40
0.1313069707881153
 40
0.1550776717152997
 40
0.178850786314607
 40
0.2026261683440453
 40
0.2264036217928015
 40
0.2501829161866093
 40
0.2739637976811971
 40
0.2977459969378963
 40
0.3215292345768985
 40
0.3453132248374584
 40
0.3690976779418403
 40
0.392882301558685
 40
0.4166667602264477
 40
0.4404507023474571
 40
0.4642338325502964
 40
0.4880158559702912
 40
0.5117964796313024
 40
0.5355754147116523
 40
0.5593523800752374
 40
0.5831271075615513
 40
0.6068993496610239
 40
0.630668890369363
 40
0.6544355602157591
 40
0.678199256687952
 40
0.7019599715109723
 40
0.7257178264312524
 40
0.7494731192284015
 40
0.7732263814736307
 40
0.7969784488325397
 40
0.8207302921628976
 40
0.8444832441981324
 40
0.8682393741478286
 40
0.89200136768649
 40
0.9157725716466149
 40
0.9395569684111256
 40
0.963359032355987
 40
0.9871834146044282
 40
1.0
 40
1.0
 40
1.0
 40
1.0
 10
637.4112166523254
 20
-224.7829834517487
 30
0.0
 10
637.4053417248666
 20
-225.6358633051286
 30
0.0
 10
637.3882920824432
 20
-228.1110081698659
 30
0.0
 10
637.1986747896257
 20
-232.3000469246229
 30
0.0
 10
636.7731142834776
 20
-237.3746388964589
 30
0.0
 10
636.1345470044664
 20
-242.5436134175436
 30
0.0
 10
635.2880847098195
 20
-247.7913895889058
 30
0.0
 10
634.2347686836616
 20
-253.1051285570011
 30
0.0
 10
632.9774206126565
 20
-258.4710541599061
 30
0.0
 10
631.51907087449
 20
-263.8754474610706
 30
0.0
 10
629.8633696227258
 20
-269.3044305331951
 30
0.0
 10
628.0144641803889
 20
-274.744073822898
 30
0.0
 10
625.9770174780198
 20
-280.1804159476013
 30
0.0
 10
623.7561869642049
 20
-285.5995061731306
 30
0.0
 10
621.3576125620524
 20
-290.9874400878477
 30
0.0
 10
618.7874007875728
 20
-296.3303964215352
 30
0.0
 10
616.0521085814142
 20
-301.6146729078718
 30
0.0
 10
613.1587259782018
 20
-306.8267217639478
 30
0.0
 10
610.1146596766781
 20
-311.953181650566
 30
0.0
 10
606.9277150764777
 20
-316.9809113456448
 30
0.0
 10
603.6060742179566
 20
-321.8970281160168
 30
0.0
 10
600.1582727375123
 20
-326.6889439256895
 30
0.0
 10
596.5931770016806
 20
-331.3443987927918
 30
0.0
 10
592.9199642382976
 20
-335.8514888839089
 30
0.0
 10
589.1480993461619
 20
-340.19869794242
 30
0.0
 10
585.2873108942434
 20
-344.3749280398719
 30
0.0
 10
581.3475662784767
 20
-348.3695296190937
 30
0.0
 10
577.3390459767248
 20
-352.172330794655
 30
0.0
 10
573.2721168091286
 20
-355.7736658635432
 30
0.0
 10
569.1573040685943
 20
-359.1644029576275
 30
0.0
 10
565.0052623408023
 20
-362.3359707208623
 30
0.0
 10
560.8267447687871
 20
-365.2803838555606
 30
0.0
 10
556.6325705126707
 20
-367.9902671737951
 30
0.0
 10
552.4335899581222
 20
-370.4588780323311
 30
0.0
 10
548.2406478572872
 20
-372.6801253543317
 30
0.0
 10
544.0645570766906
 20
-374.6485817092301
 30
0.0
 10
539.9160664724981
 20
-376.3594872243851
 30
0.0
 10
535.8057890488917
 20
-377.8088034783516
 30
0.0
 10
531.7442002406369
 20
-378.9930782690861
 30
0.0
 10
527.7413676990151
 20
-379.9099540217208
 30
0.0
 10
523.8077371498786
 20
-380.5561979066318
 30
0.0
 10
519.9510454128176
 20
-380.9349258399773
 30
0.0
 10
516.1877047026712
 20
-381.0284499294225
 30
0.0
 10
513.0694623969896
 20
-380.9194306728381
 30
0.0
 10
511.2530441166894
 20
-380.6732058332808
 30
0.0
 10
510.6176820752245
 20
-380.5870792409551
 30
0.0
  0
SPLINE
  5
136
330
1F
100
AcDbEntity
  8
0
  6
Continuous
 62
     7
370
    25
100
AcDbSpline
210
0.0
220
0.0
230
1.0
 70
     8
 71
     3
 72
    13
 73
     9
 74
     0
 42
0.00000001
 43
0.00000001
 40
0.0
 40
0.0
 40
0.0
 40
0.0
 40
0.0687747011349543
 40
0.308414121640435
 40
0.5150995369251915
 40
0.7347840002224232
 40
0.9366890710921592
 40
1.0
 40
1.0
 40
1.0
 40
1.0
 10
634.5077176611674
 20
-307.0326281253271
 30
0.0
 10
634.5881014890501
 20
-307.0749303351904
 30
0.0
 10
634.9485757224735
 20
-307.2646308890733
 30
0.0
 10
635.4180359768962
 20
-307.8268384707031
 30
0.0
 10
635.9283638705061
 20
-308.7420501205346
 30
0.0
 10
636.2483590718593
 20
-309.8431110176925
 30
0.0
 10
636.3665254250936
 20
-310.8311152938236
 30
0.0
 10
636.3740054695953
 20
-311.4154324984769
 30
0.0
 10
636.3757910653592
 20
-311.5549175409873
 30
0.0
  0
SPLINE
  5
137
330
1F
100
AcDbEntity
  8
0
  6
Continuous
 62
     7
370
    25
100
AcDbSpline
210
0.0
220
0.0
230
1.0
 70
     8
 71
     3
 72
    23
 73
    19
 74
     0
 42
0.00000001
 43
0.00000001
 40
0.0
 40
0.0
 40
0.0
 40
0.0
 40
0.0347062850468367
 40
0.1013485286476331
 40
0.1682247529126812
 40
0.2353044172994639
 40
0.3025413664405117
 40
0.3698590658997783
 40
0.4371688007477224
 40
0.5043551266211587
 40
0.5713294460096494
 40
0.6380137078666761
 40
0.7043711959795311
 40
0.7704847881974223
 40
0.8366149375496633
 40
0.9034488731801361
 40
0.972471724775681
 40
1.0
 40
1.0
 40
1.0
 40
1.0
 10
636.3757910653592
 20
-311.5549175409873
 30
0.0
 10
636.37041035314
 20
-311.8063149665693
 30
0.0
 10
636.3546977159117
 20
-312.5404401878126
 30
0.0
 10
636.1767807962908
 20
-313.8526424013264
 30
0.0
 10
635.7756650911118
 20
-315.4807929079398
 30
0.0
 10
635.1801713042896
 20
-317.1406209957364
 30
0.0
 10
634.4081812643066
 20
-318.7820376894546
 30
0.0
 10
633.4794148261769
 20
-320.3588954075233
 30
0.0
 10
632.4204790740657
 20
-321.8258490852668
 30
0.0
 10
631.2625893560271
 20
-323.1413449145427
 30
0.0
 10
630.0410887933916
 20
-324.2689164784959
 30
0.0
 10
628.7943182699879
 20
-325.1787864149829
 30
0.0
 10
627.5621471927567
 20
-325.8500185487549
 30
0.0
 10
626.3854421031538
 20
-326.2700704670691
 30
0.0
 10
625.2979491956899
 20
-326.4443349393827
 30
0.0
 10
624.3341657211329
 20
-326.3653785253671
 30
0.0
 10
623.647519641899
 20
-326.1690107083426
 30
0.0
 10
623.3224436959376
 20
-325.9124881953408
 30
0.0
 10
623.2297593285565
 20
-325.839349511498
 30
0.0
  0
SPLINE
  5
138
330
1F
100
AcDbEntity
  8
0
  6
Continuous
 62
     7
370
    25
100
AcDbSpline
210
0.0
220
0.0
230
1.0
 70
     8
 71
     3
 72
    62
 73
    58
 74
     0
 42
0.00000001
 43
0.00000001
 40
0.0
 40
0.0
 40
0.0
 40
0.0
 40
0.0066350580878848
 40
0.0253898603305564
 40
0.0441213500096128
 40
0.0628312150374109
 40
0.0815223352803176
 40
0.1001981329667143
 40
0.1188620776992687
 40
0.1375173672606283
 40
0.1561667599006701
 40
0.1748125169368107
 40
0.1934564152219414
 40
0.2120997761445399
 40
0.2307433061346403
 40
0.249387773410497
 40
0.2680336884061246
 40
0.2866813609057762
 40
0.3053309478871187
 40
0.3239824921205992
 40
0.3426359524941457
 40
0.3612912273314225
 40
0.3799481719918939
 40
0.3986066119245087
 40
0.4172663521774181
 40
0.4359271841892762
 40
0.4545888905258665
 40
0.4732512480883157
 40
0.4919140302081257
 40
0.5105770079585388
 40
0.5292399391017728
 40
0.5479025272292499
 40
0.5665645405896911
 40
0.5852257476230001
 40
0.6038859179008826
 40
0.622544823693257
 40
0.6412022424376672
 40
0.6598579604755305
 40
0.6785117785161424
 40
0.6971635194132009
 40
0.7158130389896054
 40
0.7344602408206398
 40
0.7531050960704119
 40
0.7717476696425437
 40
0.790388153996742
 40
0.8090269118964539
 40
0.8276645289202198
 40
0.8463017854642804
 40
0.8649395501665579
 40
0.8835793265898662
 40
0.9022230870177891
 40
0.9208733171679406
 40
0.9395330142522703
 40
0.9582056033154305
 40
0.9768947301241787
 40
0.9956038923952069
 40
1.0
 40
1.0
 40
1.0
 40
1.0
 10
501.4697316395047
 20
-375.7066459663947
 30
0.0
 10
501.2025418256204
 20
-375.3833162184739
 30
0.0
 10
500.1801073621369
 20
-374.1460554391879
 30
0.0
 10
498.5864853752113
 20
-371.7526813642894
 30
0.0
 10
496.6965460060401
 20
-368.536754166664
 30
0.0
 10
495.0097195200326
 20
-365.0893448925128
 30
0.0
 10
493.5149272409006
 20
-361.4394269269035
 30
0.0
 10
492.2197747018142
 20
-357.5906408738942
 30
0.0
 10
491.1263459838898
 20
-353.5539493789378
 30
0.0
 10
490.2376790117533
 20
-349.3389369330608
 30
0.0
 10
489.5560113496998
 20
-344.9561579981941
 30
0.0
 10
489.08321804033
 20
-340.4165087642549
 30
0.0
 10
488.8206607313693
 20
-335.7313794446612
 30
0.0
 10
488.7691974151194
 20
-330.9126037434278
 30
0.0
 10
488.9291506991747
 20
-325.9724078519234
 30
0.0
 10
489.3002994839849
 20
-320.9233667376844
 30
0.0
 10
489.88187645948
 20
-315.7783414954678
 30
0.0
 10
490.6725644422893
 20
-310.5504711825185
 30
0.0
 10
491.6704960774836
 20
-305.2531315535359
 30
0.0
 10
492.8732568627145
 20
-299.8998940146848
 30
0.0
 10
494.2778908356439
 20
-294.5044851974941
 30
0.0
 10
495.8809084711725
 20
-289.0807472314165
 30
0.0
 10
497.6782964183568
 20
-283.6425987312824
 30
0.0
 10
499.6655288058681
 20
-278.2039964599356
 30
0.0
 10
501.8375799159605
 20
-272.7788976141788
 30
0.0
 10
504.1889380820485
 20
-267.3812226843539
 30
0.0
 10
506.7136207041668
 20
-262.0248188495337
 30
0.0
 10
509.4051903038831
 20
-256.7234238848125
 30
0.0
 10
512.2567715587007
 20
-251.4906305714932
 30
0.0
 10
515.2610686320595
 20
-246.339852703938
 30
0.0
 10
518.4103808697948
 20
-241.2842952192823
 30
0.0
 10
521.6966254852641
 20
-236.3369136923293
 30
0.0
 10
525.1113590436754
 20
-231.5103796394339
 30
0.0
 10
528.6458026263132
 20
-226.8170433683039
 30
0.0
 10
532.2908603532399
 20
-222.2689076013633
 30
0.0
 10
536.0371423584309
 20
-217.8775958705896
 30
0.0
 10
539.8749885706003
 20
-213.6543215808221
 30
0.0
 10
543.7944933252436
 20
-209.6098577731176
 30
0.0
 10
547.7855308595368
 20
-205.7545076207234
 30
0.0
 10
551.8377817732901
 20
-202.0980757000748
 30
0.0
 10
555.9407605782793
 20
-198.6498400998237
 30
0.0
 10
560.0838445066388
 20
-195.4185254631211
 30
0.0
 10
564.2563037953297
 20
-192.4122771299669
 30
0.0
 10
568.4473337353706
 20
-189.6386365915033
 30
0.0
 10
572.6460887348842
 20
-187.1045187804611
 30
0.0
 10
576.8417189375117
 20
-184.8161912587938
 30
0.0
 10
581.0234020562389
 20
-182.7792613456464
 30
0.0
 10
585.1803675675488
 20
-180.9986647693957
 30
0.0
 10
589.3019503810998
 20
-179.4786601531466
 30
0.0
 10
593.3776708248726
 20
-178.2227616679233
 30
0.0
 10
597.3971965634428
 20
-177.2339765758795
 30
0.0
 10
601.3507535047031
 20
-176.5139617793643
 30
0.0
 10
605.2277306340403
 20
-176.0663009871892
 30
0.0
 10
609.0220543029953
 20
-175.88441794627
 30
0.0
 10
612.7121997051942
 20
-175.9969330766975
 30
0.0
 10
615.4103764319732
 20
-176.2213795180058
 30
0.0
 10
616.8377736799973
 20
-176.493129282626
 30
0.0
 10
617.109356393847
 20
-176.5448335567274
 30
0.0
  0
SPLINE
  5
139
330
1F
100
AcDbEntity
  8
0
  6
Continuous
 62
     7
370
    25
100
AcDbSpline
210
0.0
220
0.0
230
1.0
 70
     8
 71
     3
 72
    13
 73
     9
 74
     0
 42
0.00000001
 43
0.00000001
 40
0.0
 40
0.0
 40
0.0
 40
0.0
 40
0.0687747011349124
 40
0.3084141216403881
 40
0.5150995369251342
 40
0.73478400022234
 40
0.9366890710920779
 40
1.0
 40
1.0
 40
1.0
 40
1.0
 10
665.4184047532628
 20
-203.0140726738417
 30
0.0
 10
665.4987885811455
 20
-203.0563748837049
 30
0.0
 10
665.8592628145689
 20
-203.2460754375878
 30
0.0
 10
666.3287230689917
 20
-203.8082830192176
 30
0.0
 10
666.8390509626015
 20
-204.7234946690488
 30
0.0
 10
667.1590461639549
 20
-205.8245555662066
 30
0.0
 10
667.2772125171892
 20
-206.8125598423379
 30
0.0
 10
667.2846925616909
 20
-207.3968770469913
 30
0.0
 10
667.2864781574546
 20
-207.5363620895019
 30
0.0
  0
SPLINE
  5
13A
330
1F
100
AcDbEntity
  8
0
  6
Continuous
 62
     7
370
    25
100
AcDbSpline
210
0.0
220
0.0
230
1.0
 70
     8
 71
     3
 72
    23
 73
    19
 74
     0
 42
0.00000001
 43
0.00000001
 40
0.0
 40
0.0
 40
0.0
 40
0.0
 40
0.0347062850468363
 40
0.1013485286476326
 40
0.1682247529126781
 40
0.2353044172994544
 40
0.3025413664405057
 40
0.3698590658997768
 40
0.4371688007477258
 40
0.5043551266211624
 40
0.5713294460096539
 40
0.638013707866678
 40
0.7043711959795339
 40
0.7704847881974234
 40
0.8366149375496663
 40
0.9034488731801424
 40
0.9724717247756862
 40
0.9999999999999999
 40
0.9999999999999999
 40
0.9999999999999999
 40
0.9999999999999999
 10
667.2864781574546
 20
-207.5363620895019
 30
0.0
 10
667.2810974452356
 20
-207.7877595150839
 30
0.0
 10
667.2653848080072
 20
-208.5218847363272
 30
0.0
 10
667.0874678883864
 20
-209.834086949841
 30
0.0
 10
666.6863521832074
 20
-211.4622374564543
 30
0.0
 10
666.0908583963851
 20
-213.1220655442508
 30
0.0
 10
665.3188683564022
 20
-214.7634822379691
 30
0.0
 10
664.3901019182725
 20
-216.3403399560379
 30
0.0
 10
663.3311661661612
 20
-217.8072936337815
 30
0.0
 10
662.1732764481225
 20
-219.1227894630574
 30
0.0
 10
660.951775885487
 20
-220.2503610270105
 30
0.0
 10
659.7050053620833
 20
-221.1602309634976
 30
0.0
 10
658.4728342848522
 20
-221.8314630972695
 30
0.0
 10
657.2961291952491
 20
-222.2515150155837
 30
0.0
 10
656.2086362877852
 20
-222.4257794878973
 30
0.0
 10
655.2448528132284
 20
-222.3468230738816
 30
0.0
 10
654.5582067339943
 20
-222.1504552568572
 30
0.0
 10
654.2331307880331
 20
-221.8939327438554
 30
0.0
 10
654.1404464206521
 20
-221.8207940600126
 30
0.0
  0
SPLINE
  5
13B
330
1F
100
AcDbEntity
  8
0
  6
Continuous
 62
     7
370
    25
100
AcDbSpline
210
0.0
220
0.0
230
1.0
 70
     8
 71
     3
 72
    13
 73
     9
 74
     0
 42
0.00000001
 43
0.00000001
 40
0.0
 40
0.0
 40
0.0
 40
0.0
 40
0.0687747011349639
 40
0.3084141216404337
 40
0.5150995369251722
 40
0.7347840002223828
 40
0.9366890710921166
 40
1.0
 40
1.0
 40
1.0
 40
1.0
 10
559.8827176611652
 20
-385.8072441925602
 30
0.0
 10
559.9631014890479
 20
-385.8495464024235
 30
0.0
 10
560.3235757224712
 20
-386.0392469563064
 30
0.0
 10
560.7930359768941
 20
-386.6014545379363
 30
0.0
 10
561.3033638705039
 20
-387.5166661877676
 30
0.0
 10
561.6233590718571
 20
-388.6177270849253
 30
0.0
 10
561.7415254250915
 20
-389.6057313610565
 30
0.0
 10
561.7490054695932
 20
-390.1900485657099
 30
0.0
 10
561.7507910653569
 20
-390.3295336082205
 30
0.0
  0
SPLINE
  5
13C
330
1F
100
AcDbEntity
  8
0
  6
Continuous
 62
     7
370
    25
100
AcDbSpline
210
0.0
220
0.0
230
1.0
 70
     8
 71
     3
 72
    23
 73
    19
 74
     0
 42
0.00000001
 43
0.00000001
 40
0.0
 40
0.0
 40
0.0
 40
0.0
 40
0.0347062850468356
 40
0.1013485286476271
 40
0.1682247529126747
 40
0.2353044172994547
 40
0.3025413664405054
 40
0.3698590658997686
 40
0.4371688007477158
 40
0.5043551266211521
 40
0.5713294460096372
 40
0.6380137078666642
 40
0.7043711959795225
 40
0.7704847881974108
 40
0.8366149375496552
 40
0.903448873180125
 40
0.9724717247756756
 40
0.9999999999999999
 40
0.9999999999999999
 40
0.9999999999999999
 40
0.9999999999999999
 10
561.7507910653569
 20
-390.3295336082205
 30
0.0
 10
561.7454103531377
 20
-390.5809310338025
 30
0.0
 10
561.7296977159094
 20
-391.3150562550457
 30
0.0
 10
561.5517807962887
 20
-392.6272584685595
 30
0.0
 10
561.1506650911097
 20
-394.2554089751727
 30
0.0
 10
560.5551713042875
 20
-395.9152370629693
 30
0.0
 10
559.7831812643044
 20
-397.5566537566876
 30
0.0
 10
558.8544148261748
 20
-399.1335114747563
 30
0.0
 10
557.7954790740636
 20
-400.6004651524998
 30
0.0
 10
556.6375893560249
 20
-401.9159609817757
 30
0.0
 10
555.4160887933897
 20
-403.0435325457289
 30
0.0
 10
554.1693182699859
 20
-403.9534024822159
 30
0.0
 10
552.9371471927547
 20
-404.6246346159879
 30
0.0
 10
551.7604421031517
 20
-405.0446865343022
 30
0.0
 10
550.6729491956878
 20
-405.2189510066158
 30
0.0
 10
549.7091657211308
 20
-405.1399945926001
 30
0.0
 10
549.0225196418968
 20
-404.9436267755757
 30
0.0
 10
548.6974436959355
 20
-404.6871042625739
 30
0.0
 10
548.6047593285543
 20
-404.6139655787311
 30
0.0
  0
SPLINE
  5
13D
330
1F
100
AcDbEntity
  8
0
  6
Continuous
 62
     7
370
    25
100
AcDbSpline
210
0.0
220
0.0
230
1.0
 70
     8
 71
     3
 72
    13
 73
     9
 74
     0
 42
0.00000001
 43
0.00000001
 40
0.0
 40
0.0
 40
0.0
 40
0.0
 40
0.0687747011349635
 40
0.3084141216404375
 40
0.5150995369251858
 40
0.7347840002224189
 40
0.9366890710921445
 40
1.0
 40
1.0
 40
1.0
 40
1.0
 10
634.507717661173
 20
-134.6842368831263
 30
0.0
 10
634.5881014890557
 20
-134.7265390929895
 30
0.0
 10
634.9485757224791
 20
-134.9162396468725
 30
0.0
 10
635.418035976902
 20
-135.4784472285023
 30
0.0
 10
635.9283638705118
 20
-136.3936588783336
 30
0.0
 10
636.248359071865
 20
-137.4947197754915
 30
0.0
 10
636.3665254250994
 20
-138.4827240516227
 30
0.0
 10
636.3740054696011
 20
-139.067041256276
 30
0.0
 10
636.3757910653648
 20
-139.2065262987865
 30
0.0
  0
SPLINE
  5
13E
330
1F
100
AcDbEntity
  8
0
  6
Continuous
 62
     7
370
    25
100
AcDbSpline
210
0.0
220
0.0
230
1.0
 70
     8
 71
     3
 72
    23
 73
    19
 74
     0
 42
0.00000001
 43
0.00000001
 40
0.0
 40
0.0
 40
0.0
 40
0.0
 40
0.0347062850468366
 40
0.1013485286476213
 40
0.1682247529126711
 40
0.2353044172994488
 40
0.3025413664405008
 40
0.3698590658997655
 40
0.4371688007477099
 40
0.5043551266211492
 40
0.5713294460096399
 40
0.6380137078666667
 40
0.7043711959795216
 40
0.7704847881974156
 40
0.8366149375496565
 40
0.9034488731801303
 40
0.972471724775681
 40
1.0
 40
1.0
 40
1.0
 40
1.0
 10
636.3757910653648
 20
-139.2065262987865
 30
0.0
 10
636.3704103531456
 20
-139.4579237243685
 30
0.0
 10
636.3546977159174
 20
-140.1920489456117
 30
0.0
 10
636.1767807962966
 20
-141.5042511591254
 30
0.0
 10
635.7756650911176
 20
-143.1324016657386
 30
0.0
 10
635.1801713042954
 20
-144.7922297535351
 30
0.0
 10
634.4081812643124
 20
-146.4336464472535
 30
0.0
 10
633.4794148261828
 20
-148.0105041653221
 30
0.0
 10
632.4204790740716
 20
-149.4774578430658
 30
0.0
 10
631.2625893560329
 20
-150.7929536723417
 30
0.0
 10
630.0410887933975
 20
-151.9205252362948
 30
0.0
 10
628.7943182699937
 20
-152.830395172782
 30
0.0
 10
627.5621471927626
 20
-153.5016273065539
 30
0.0
 10
626.3854421031594
 20
-153.9216792248682
 30
0.0
 10
625.2979491956955
 20
-154.0959436971818
 30
0.0
 10
624.3341657211387
 20
-154.0169872831662
 30
0.0
 10
623.6475196419045
 20
-153.8206194661417
 30
0.0
 10
623.3224436959432
 20
-153.5640969531399
 30
0.0
 10
623.2297593285622
 20
-153.4909582692971
 30
0.0
  0
SPLINE
  5
13F
330
1F
100
AcDbEntity
  8
0
  6
Continuous
 62
     7
370
    25
100
AcDbSpline
210
0.0
220
0.0
230
1.0
 70
     8
 71
     3
 72
    13
 73
     9
 74
     0
 42
0.00000001
 43
0.00000001
 40
0.0
 40
0.0
 40
0.0
 40
0.0
 40
0.0687747011349575
 40
0.3084141216404375
 40
0.5150995369251932
 40
0.7347840002224241
 40
0.9366890710921594
 40
1.0
 40
1.0
 40
1.0
 40
1.0
 10
485.2577176611652
 20
-393.1928191540894
 30
0.0
 10
485.3381014890479
 20
-393.2351213639527
 30
0.0
 10
485.6985757224713
 20
-393.4248219178356
 30
0.0
 10
486.1680359768942
 20
-393.9870294994653
 30
0.0
 10
486.678363870504
 20
-394.9022411492968
 30
0.0
 10
486.9983590718573
 20
-396.0033020464547
 30
0.0
 10
487.1165254250916
 20
-396.9913063225858
 30
0.0
 10
487.1240054695932
 20
-397.5756235272391
 30
0.0
 10
487.125791065357
 20
-397.7151085697496
 30
0.0
  0
SPLINE
  5
140
330
1F
100
AcDbEntity
  8
0
  6
Continuous
 62
     7
370
    25
100
AcDbSpline
210
0.0
220
0.0
230
1.0
 70
     8
 71
     3
 72
    23
 73
    19
 74
     0
 42
0.00000001
 43
0.00000001
 40
0.0
 40
0.0
 40
0.0
 40
0.0
 40
0.0347062850468367
 40
0.1013485286476331
 40
0.1682247529126811
 40
0.2353044172994638
 40
0.3025413664405115
 40
0.3698590658997781
 40
0.4371688007477222
 40
0.5043551266211584
 40
0.5713294460096492
 40
0.6380137078666759
 40
0.7043711959795309
 40
0.770484788197422
 40
0.836614937549663
 40
0.9034488731801358
 40
0.9724717247756807
 40
1.0
 40
1.0
 40
1.0
 40
1.0
 10
487.125791065357
 20
-397.7151085697496
 30
0.0
 10
487.1204103531379
 20
-397.9665059953316
 30
0.0
 10
487.1046977159095
 20
-398.7006312165749
 30
0.0
 10
486.9267807962888
 20
-400.0128334300886
 30
0.0
 10
486.5256650911097
 20
-401.6409839367021
 30
0.0
 10
485.9301713042875
 20
-403.3008120244985
 30
0.0
 10
485.1581812643045
 20
-404.9422287182169
 30
0.0
 10
484.2294148261748
 20
-406.5190864362856
 30
0.0
 10
483.1704790740636
 20
-407.9860401140291
 30
0.0
 10
482.0125893560249
 20
-409.301535943305
 30
0.0
 10
480.7910887933896
 20
-410.4291075072581
 30
0.0
 10
479.5443182699858
 20
-411.3389774437451
 30
0.0
 10
478.3121471927546
 20
-412.0102095775171
 30
0.0
 10
477.1354421031516
 20
-412.4302614958314
 30
0.0
 10
476.0479491956877
 20
-412.6045259681449
 30
0.0
 10
475.0841657211308
 20
-412.5255695541293
 30
0.0
 10
474.3975196418968
 20
-412.3292017371048
 30
0.0
 10
474.0724436959355
 20
-412.0726792241031
 30
0.0
 10
473.9797593285544
 20
-411.9995405402602
 30
0.0
  0
SPLINE
  5
141
330
1F
100
AcDbEntity
  8
0
  6
Continuous
 62
     7
370
    25
100
AcDbSpline
210
0.0
220
0.0
230
1.0
 70
     8
 71
     3
 72
    13
 73
     9
 74
     0
 42
0.00000001
 43
0.00000001
 40
0.0
 40
0.0
 40
0.0
 40
0.0
 40
0.068774701134947
 40
0.3084141216404211
 40
0.5150995369251641
 40
0.7347840002223791
 40
0.9366890710921102
 40
1.0
 40
1.0
 40
1.0
 40
1.0
 10
559.8827176611732
 20
-142.0698118446554
 30
0.0
 10
559.9631014890559
 20
-142.1121140545186
 30
0.0
 10
560.3235757224793
 20
-142.3018146084015
 30
0.0
 10
560.7930359769022
 20
-142.8640221900314
 30
0.0
 10
561.3033638705118
 20
-143.7792338398627
 30
0.0
 10
561.6233590718653
 20
-144.8802947370205
 30
0.0
 10
561.7415254250994
 20
-145.8682990131516
 30
0.0
 10
561.7490054696011
 20
-146.452616217805
 30
0.0
 10
561.7507910653649
 20
-146.5921012603156
 30
0.0
  0
SPLINE
  5
142
330
1F
100
AcDbEntity
  8
0
  6
Continuous
 62
     7
370
    25
100
AcDbSpline
210
0.0
220
0.0
230
1.0
 70
     8
 71
     3
 72
    23
 73
    19
 74
     0
 42
0.00000001
 43
0.00000001
 40
0.0
 40
0.0
 40
0.0
 40
0.0
 40
0.0347062850468356
 40
0.101348528647627
 40
0.1682247529126747
 40
0.2353044172994546
 40
0.3025413664405054
 40
0.3698590658997686
 40
0.4371688007477158
 40
0.5043551266211524
 40
0.5713294460096379
 40
0.6380137078666652
 40
0.7043711959795239
 40
0.7704847881974125
 40
0.8366149375496573
 40
0.9034488731801208
 40
0.972471724775674
 40
1.0
 40
1.0
 40
1.0
 40
1.0
 10
561.7507910653649
 20
-146.5921012603156
 30
0.0
 10
561.7454103531459
 20
-146.8434986858976
 30
0.0
 10
561.7296977159175
 20
-147.5776239071409
 30
0.0
 10
561.5517807962966
 20
-148.8898261206546
 30
0.0
 10
561.1506650911177
 20
-150.5179766272678
 30
0.0
 10
560.5551713042954
 20
-152.1778047150644
 30
0.0
 10
559.7831812643124
 20
-153.8192214087827
 30
0.0
 10
558.8544148261828
 20
-155.3960791268514
 30
0.0
 10
557.7954790740716
 20
-156.863032804595
 30
0.0
 10
556.637589356033
 20
-158.1785286338709
 30
0.0
 10
555.4160887933976
 20
-159.3061001978239
 30
0.0
 10
554.1693182699938
 20
-160.215970134311
 30
0.0
 10
552.9371471927627
 20
-160.8872022680829
 30
0.0
 10
551.7604421031597
 20
-161.3072541863974
 30
0.0
 10
550.6729491956958
 20
-161.4815186587109
 30
0.0
 10
549.7091657211388
 20
-161.4025622446954
 30
0.0
 10
549.0225196419048
 20
-161.2061944276709
 30
0.0
 10
548.6974436959434
 20
-160.9496719146691
 30
0.0
 10
548.6047593285623
 20
-160.8765332308262
 30
0.0
  0
SPLINE
  5
143
330
1F
100
AcDbEntity
  8
0
  6
Continuous
 62
     7
370
    25
100
AcDbSpline
210
0.0
220
0.0
230
1.0
 70
     8
 71
     3
 72
    13
 73
     9
 74
     0
 42
0.00000001
 43
0.00000001
 40
0.0
 40
0.0
 40
0.0
 40
0.0
 40
0.068774701134991
 40
0.3084141216404599
 40
0.5150995369252053
 40
0.7347840002224382
 40
0.9366890710921745
 40
1.0
 40
1.0
 40
1.0
 40
1.0
 10
454.3470305690755
 20
-324.8629833633739
 30
0.0
 10
454.4274143969582
 20
-324.9052855732372
 30
0.0
 10
454.7878886303815
 20
-325.0949861271202
 30
0.0
 10
455.2573488848045
 20
-325.65719370875
 30
0.0
 10
455.7676767784142
 20
-326.5724053585815
 30
0.0
 10
456.0876719797675
 20
-327.6734662557394
 30
0.0
 10
456.2058383330018
 20
-328.6614705318705
 30
0.0
 10
456.2133183775035
 20
-329.2457877365237
 30
0.0
 10
456.2151039732672
 20
-329.3852727790341
 30
0.0
  0
SPLINE
  5
144
330
1F
100
AcDbEntity
  8
0
  6
Continuous
 62
     7
370
    25
100
AcDbSpline
210
0.0
220
0.0
230
1.0
 70
     8
 71
     3
 72
    23
 73
    19
 74
     0
 42
0.00000001
 43
0.00000001
 40
0.0
 40
0.0
 40
0.0
 40
0.0
 40
0.0347062850468363
 40
0.1013485286476331
 40
0.168224752912679
 40
0.2353044172994549
 40
0.3025413664405132
 40
0.3698590658997761
 40
0.4371688007477205
 40
0.5043551266211612
 40
0.5713294460096519
 40
0.6380137078666773
 40
0.7043711959795325
 40
0.7704847881974242
 40
0.8366149375496665
 40
0.9034488731801401
 40
0.972471724775689
 40
0.9999999999999999
 40
0.9999999999999999
 40
0.9999999999999999
 40
0.9999999999999999
 10
456.2151039732672
 20
-329.3852727790341
 30
0.0
 10
456.2097232610481
 20
-329.6366702046162
 30
0.0
 10
456.1940106238197
 20
-330.3707954258595
 30
0.0
 10
456.0160937041989
 20
-331.6829976393732
 30
0.0
 10
455.6149779990199
 20
-333.3111481459865
 30
0.0
 10
455.0194842121977
 20
-334.970976233783
 30
0.0
 10
454.2474941722145
 20
-336.6123929275014
 30
0.0
 10
453.318727734085
 20
-338.1892506455701
 30
0.0
 10
452.2597919819738
 20
-339.6562043233137
 30
0.0
 10
451.1019022639351
 20
-340.9717001525895
 30
0.0
 10
449.8804017012996
 20
-342.0992717165427
 30
0.0
 10
448.6336311778958
 20
-343.0091416530298
 30
0.0
 10
447.4014601006648
 20
-343.6803737868016
 30
0.0
 10
446.2247550110617
 20
-344.1004257051159
 30
0.0
 10
445.1372621035977
 20
-344.2746901774295
 30
0.0
 10
444.1734786290409
 20
-344.1957337634138
 30
0.0
 10
443.4868325498069
 20
-343.9993659463893
 30
0.0
 10
443.1617566038456
 20
-343.7428434333876
 30
0.0
 10
443.0690722364646
 20
-343.6697047495447
 30
0.0
  0
SPLINE
  5
145
330
1F
100
AcDbEntity
  8
0
  6
Continuous
 62
     7
370
    25
100
AcDbSpline
210
0.0
220
0.0
230
1.0
 70
     8
 71
     3
 72
    13
 73
     9
 74
     0
 42
0.00000001
 43
0.00000001
 40
0.0
 40
0.0
 40
0.0
 40
0.0
 40
0.0687747011349645
 40
0.3084141216404383
 40
0.5150995369251865
 40
0.7347840002224193
 40
0.9366890710921447
 40
1.0
 40
1.0
 40
1.0
 40
1.0
 10
485.2577176611709
 20
-220.8444279118885
 30
0.0
 10
485.3381014890537
 20
-220.8867301217518
 30
0.0
 10
485.698575722477
 20
-221.0764306756347
 30
0.0
 10
486.1680359768999
 20
-221.6386382572645
 30
0.0
 10
486.6783638705096
 20
-222.5538499070959
 30
0.0
 10
486.998359071863
 20
-223.6549108042538
 30
0.0
 10
487.1165254250973
 20
-224.6429150803849
 30
0.0
 10
487.124005469599
 20
-225.2272322850382
 30
0.0
 10
487.1257910653626
 20
-225.3667173275487
 30
0.0
  0
SPLINE
  5
146
330
1F
100
AcDbEntity
  8
0
  6
Continuous
 62
     7
370
    25
100
AcDbSpline
210
0.0
220
0.0
230
1.0
 70
     8
 71
     3
 72
    23
 73
    19
 74
     0
 42
0.00000001
 43
0.00000001
 40
0.0
 40
0.0
 40
0.0
 40
0.0
 40
0.0347062850468366
 40
0.1013485286476213
 40
0.168224752912671
 40
0.2353044172994487
 40
0.3025413664405007
 40
0.3698590658997654
 40
0.4371688007477098
 40
0.5043551266211491
 40
0.5713294460096396
 40
0.6380137078666664
 40
0.7043711959795214
 40
0.7704847881974153
 40
0.8366149375496562
 40
0.90344887318013
 40
0.9724717247756806
 40
1.0
 40
1.0
 40
1.0
 40
1.0
 10
487.1257910653626
 20
-225.3667173275487
 30
0.0
 10
487.1204103531436
 20
-225.6181147531308
 30
0.0
 10
487.1046977159152
 20
-226.3522399743739
 30
0.0
 10
486.9267807962944
 20
-227.6644421878876
 30
0.0
 10
486.5256650911155
 20
-229.2925926945008
 30
0.0
 10
485.9301713042933
 20
-230.9524207822974
 30
0.0
 10
485.1581812643102
 20
-232.5938374760157
 30
0.0
 10
484.2294148261806
 20
-234.1706951940844
 30
0.0
 10
483.1704790740695
 20
-235.637648871828
 30
0.0
 10
482.0125893560307
 20
-236.9531447011039
 30
0.0
 10
480.7910887933954
 20
-238.080716265057
 30
0.0
 10
479.5443182699916
 20
-238.9905862015442
 30
0.0
 10
478.3121471927604
 20
-239.6618183353161
 30
0.0
 10
477.1354421031574
 20
-240.0818702536305
 30
0.0
 10
476.0479491956934
 20
-240.256134725944
 30
0.0
 10
475.0841657211365
 20
-240.1771783119284
 30
0.0
 10
474.3975196419025
 20
-239.9808104949039
 30
0.0
 10
474.0724436959412
 20
-239.7242879819021
 30
0.0
 10
473.9797593285601
 20
-239.6511492980593
 30
0.0
  0
LWPOLYLINE
  5
147
330
1F
100
AcDbEntity
  8
0
  6
Continuous
 62
     7
370
    25
100
AcDbPolyline
 90
      143
 70
   128
 43
0.0
 10
674.8272158834
 20
-202.9440664605
 10
674.7085211853
 20
-196.8182933678
 10
674.3526694415
 20
-190.8415537451
 10
673.7603572484
 20
-185.0255473407
 10
672.9327440851
 20
-179.3816592603
 10
671.871450043
 20
-173.9209376799
 10
670.5785526552
 20
-168.6540722185
 10
669.056582829
 20
-163.5913730124
 10
667.3085198918
 20
-158.7427505331
 10
665.3377857589
 20
-154.1176961869
 10
663.1482382349
 20
-149.7252637347
 10
660.7441634619
 20
-145.5740515695
 10
658.1302675292
 20
-141.6721858839
 10
655.3116672608
 20
-138.0273047633
 10
652.2938801991
 20
-134.6465432335
 10
649.0828138039
 20
-131.5365192942
 10
645.6847538886
 20
-128.7033209631
 10
642.1063523151
 20
-126.1524943591
 10
638.3546139723
 20
-123.8890328449
 10
634.4368830643
 20
-121.917367253
 10
630.3608287334
 20
-120.2413572111
 10
626.1344300473
 20
-118.8642835877
 10
621.7659603799
 20
-117.7888420691
 10
617.2639712157
 20
-117.0171378825
 10
612.63727541
 20
-116.5506816752
 10
607.894929937
 20
-116.3903865569
 10
603.0462181606
 20
-116.5365663131
 10
598.100631662
 20
-116.9889347899
 10
593.0678516589
 20
-117.7466064548
 10
587.9577300545
 20
-118.8080981299
 10
582.7802701518
 20
-120.1713318955
 10
577.5456070717
 20
-121.8336391574
 10
572.2639879131
 20
-123.7917658711
 10
566.9457516934
 20
-126.0418789116
 10
561.6013091097
 20
-128.5795735769
 10
556.2411221595
 20
-131.3998822106
 10
550.8756836604
 20
-134.4972839261
 10
545.5154967102
 20
-137.8657154141
 10
540.1710541265
 20
-141.4985828117
 10
534.8528179068
 20
-145.3887746104
 10
529.5711987481
 20
-149.5286755772
 10
524.3365356681
 20
-153.9101816613
 10
519.1590757654
 20
-158.5247158591
 10
514.048954161
 20
-163.3632450029
 10
509.0161741579
 20
-168.4162974449
 10
504.0705876592
 20
-173.6739815975
 10
499.2218758829
 20
-179.1260052972
 10
494.4795304099
 20
-184.7616959514
 10
489.8528346041
 20
-190.5700214313
 10
485.35084544
 20
-196.5396116667
 10
480.9823757726
 20
-202.6587809045
 10
476.7559770864
 20
-208.9155505836
 10
472.6799227555
 20
-215.2976727836
 10
468.7621918476
 20
-221.7926542004
 10
465.0104535048
 20
-228.387780603
 10
461.4320519312
 20
-235.0701417217
 10
458.0339920159
 20
-241.8266565208
 10
454.8229256208
 20
-248.6440988054
 10
451.8051385591
 20
-255.5091231119
 10
448.9865382907
 20
-262.408290833
 10
446.372642358
 20
-269.3280965239
 10
443.968567585
 20
-276.2549943399
 10
441.779020061
 20
-283.1754245533
 10
439.8082859281
 20
-290.0758400969
 10
438.0602229909
 20
-296.9427330834
 10
436.5382531647
 20
-303.7626612471
 10
435.2453557769
 20
-310.5222742586
 10
434.1840617348
 20
-317.2083398577
 10
433.3564485714
 20
-323.8077697572
 10
432.7641363784
 20
-330.3076452632
 10
432.4082846345
 20
-336.695242564
 10
432.2895899364
 20
-342.9580576381
 10
432.4082846345
 20
-349.0838307307
 10
432.7641363784
 20
-355.0605703535
 10
433.3564485714
 20
-360.8765767579
 10
434.1840617348
 20
-366.5204648383
 10
435.2453557769
 20
-371.9811864187
 10
436.5382531647
 20
-377.2480518801
 10
438.0602229909
 20
-382.3107510862
 10
439.8082859281
 20
-387.1593735655
 10
441.779020061
 20
-391.7844279117
 10
443.968567585
 20
-396.1768603638
 10
446.372642358
 20
-400.3280725291
 10
448.9865382907
 20
-404.2299382147
 10
451.8051385591
 20
-407.8748193353
 10
454.8229256208
 20
-411.2555808651
 10
458.0339920159
 20
-414.3656048044
 10
461.4320519312
 20
-417.1988031355
 10
465.0104535048
 20
-419.7496297395
 10
468.7621918476
 20
-422.0130912536
 10
472.6799227555
 20
-423.9847568456
 10
476.7559770864
 20
-425.6607668875
 10
480.9823757726
 20
-427.0378405109
 10
485.35084544
 20
-428.1132820295
 10
489.8528346041
 20
-428.8849862161
 10
494.4795304099
 20
-429.3514424234
 10
499.2218758829
 20
-429.5117375416
 10
504.0705876592
 20
-429.3655577855
 10
509.0161741579
 20
-428.9131893087
 10
514.048954161
 20
-428.1555176438
 10
519.1590757654
 20
-427.0940259686
 10
524.3365356681
 20
-425.7307922031
 10
529.5711987482
 20
-424.0684849412
 10
534.8528179068
 20
-422.1103582275
 10
540.1710541265
 20
-419.860245187
 10
545.5154967102
 20
-417.3225505217
 10
550.8756836604
 20
-414.502241888
 10
556.2411221595
 20
-411.4048401725
 10
561.6013091097
 20
-408.0364086845
 10
566.9457516934
 20
-404.4035412869
 10
572.2639879131
 20
-400.5133494881
 10
577.5456070717
 20
-396.3734485214
 10
582.7802701518
 20
-391.9919424372
 10
587.9577300545
 20
-387.3774082395
 10
593.0678516589
 20
-382.5388790957
 10
598.100631662
 20
-377.4858266537
 10
603.0462181606
 20
-372.2281425011
 10
607.894929937
 20
-366.7761188014
 10
612.63727541
 20
-361.1404281471
 10
617.2639712157
 20
-355.3321026673
 10
621.7659603799
 20
-349.3625124319
 10
626.1344300473
 20
-343.243343194
 10
630.3608287334
 20
-336.9865735149
 10
634.4368830643
 20
-330.604451315
 10
638.3546139723
 20
-324.1094698982
 10
642.1063523151
 20
-317.5143434956
 10
645.6847538886
 20
-310.8319823769
 10
649.0828138039
 20
-304.0754675778
 10
652.2938801991
 20
-297.2580252932
 10
655.3116672608
 20
-290.3930009867
 10
658.1302675292
 20
-283.4938332655
 10
660.7441634619
 20
-276.5740275747
 10
663.1482382349
 20
-269.6471297587
 10
665.3377857589
 20
-262.7266995453
 10
667.3085198918
 20
-255.8262840016
 10
669.056582829
 20
-248.9593910152
 10
670.5785526552
 20
-242.1394628514
 10
671.871450043
 20
-235.37984984
 10
672.9327440851
 20
-228.6937842409
 10
673.7603572484
 20
-222.0943543413
 10
674.3526694415
 20
-215.5944788354
 10
674.7085211853
 20
-209.2068815345
 10
674.8272158834
 20
-202.9440664605
  0
ARC
  5
148
330
1F
100
AcDbEntity
  8
0
  6
Continuous
 62
     7
370
    25
100
AcDbCircle
 10
497.8051966713
 20
-371.1555114657
 30
0.0
 40
59.54620577448765
100
AcDbArc
 50
215.8419658065
 51
263.8961723002
  0
ARC
  5
149
330
1F
100
AcDbEntity
  8
0
  6
Continuous
 62
     7
370
    25
100
AcDbCircle
 10
610.7044186524
 20
-175.593024596
 30
0.0
 40
59.5822125556184
100
AcDbArc
 50
35.7431020603
 51
84.2860207795
  0
ARC
  5
14A
330
1F
100
AcDbEntity
  8
0
  6
Continuous
 62
     7
370
    25
100
AcDbCircle
 10
627.5469052528
 20
-186.61954517
 30
0.0
 40
60.74224934080883
100
AcDbArc
 50
35.6300750733
 51
59.7075140094
  0
ARC
  5
14B
330
1F
100
AcDbEntity
  8
0
  6
Continuous
 62
     7
370
    25
100
AcDbCircle
 10
515.856914553
 20
-379.9806750012
 30
0.0
 40
60.95903133770303
100
AcDbArc
 50
240.3497129332
 51
263.7746248165
  0
LWPOLYLINE
  5
14C
330
1F
100
AcDbEntity
  8
0
  6
Continuous
 62
     7
370
    25
100
AcDbPolyline
 90
       38
 70
   128
 43
0.0
 10
456.5079971921
 20
-328.9770687231
 10
456.3859441441
 20
-330.7034812524
 10
456.023296244
 20
-332.5211474861
 10
455.4304862117
 20
-334.3777764762
 10
454.6245681125
 20
-336.219956387
 10
453.6287267427
 20
-337.9946910564
 10
452.4716106454
 20
-339.6509245994
 10
451.186507944
 20
-341.1410101923
 10
449.8103887035
 20
-342.4220807856
 10
448.3828413688
 20
-343.4572823109
 10
446.9449338777
 20
-344.216833905
 10
445.5380322108
 20
-344.6788846514
 10
444.2026103673
 20
-344.8301421915
 10
442.9770860024
 20
-344.6662551212
 10
441.8967152208
 20
-344.1919381732
 10
440.9925783227
 20
-343.4208365824
 10
440.2906856807
 20
-342.3751335376
 10
439.811229468
 20
-341.0849120116
 10
439.568002767
 20
-339.5872893286
 10
439.568002767
 20
-337.9253493664
 10
439.811229468
 20
-336.1469031119
 10
440.2906856807
 20
-334.3031132258
 10
440.9925783227
 20
-332.4470221862
 10
441.8967152208
 20
-330.6320263528
 10
442.9770860024
 20
-328.9103398512
 10
444.2026103673
 20
-327.3314924675
 10
445.5380322108
 20
-325.9409047663
 10
446.9449338777
 20
-324.7785814238
 10
448.3828413688
 20
-323.8779603664
 10
449.8103887035
 20
-323.2649508223
 10
451.186507944
 20
-322.9571879598
 10
452.4716106454
 20
-322.9635255561
 10
453.6287267427
 20
-323.2837812903
 10
454.6245681125
 20
-323.9087419878
 10
455.4304862117
 20
-324.8204286672
 10
456.023296244
 20
-325.9926137628
 10
456.3859441441
 20
-327.3915756435
 10
456.5079971921
 20
-328.9770687231
  0
LWPOLYLINE
  5
14D
330
1F
100
AcDbEntity
  8
0
  6
Continuous
 62
     7
370
    25
100
AcDbPolyline
 90
       38
 70
   128
 43
0.0
 10
636.6686842842
 20
-311.1467134851
 10
636.5466312362
 20
-312.8731260143
 10
636.1839833361
 20
-314.6907922481
 10
635.5911733038
 20
-316.5474212382
 10
634.7852552045
 20
-318.3896011489
 10
633.7894138347
 20
-320.1643358184
 10
632.6322977375
 20
-321.8205693613
 10
631.3471950361
 20
-323.3106549542
 10
629.9710757956
 20
-324.5917255476
 10
628.5435284609
 20
-325.6269270729
 10
627.1056209698
 20
-326.3864786669
 10
625.6987193029
 20
-326.8485294134
 10
624.3632974594
 20
-326.9997869535
 10
623.1377730945
 20
-326.8358998832
 10
622.0574023129
 20
-326.3615829351
 10
621.1532654148
 20
-325.5904813443
 10
620.4513727728
 20
-324.5447782996
 10
619.9719165601
 20
-323.2545567736
 10
619.7286898591
 20
-321.7569340906
 10
619.7286898591
 20
-320.0949941284
 10
619.9719165601
 20
-318.3165478739
 10
620.4513727728
 20
-316.4727579878
 10
621.1532654148
 20
-314.6166669481
 10
622.0574023129
 20
-312.8016711147
 10
623.1377730945
 20
-311.0799846132
 10
624.3632974594
 20
-309.5011372295
 10
625.6987193029
 20
-308.1105495282
 10
627.1056209698
 20
-306.9482261857
 10
628.5435284609
 20
-306.0476051284
 10
629.9710757956
 20
-305.4345955842
 10
631.3471950361
 20
-305.1268327217
 10
632.6322977375
 20
-305.1331703181
 10
633.7894138347
 20
-305.4534260522
 10
634.7852552045
 20
-306.0783867497
 10
635.5911733038
 20
-306.9900734292
 10
636.1839833361
 20
-308.1622585248
 10
636.5466312362
 20
-309.5612204055
 10
636.6686842842
 20
-311.1467134851
  0
LWPOLYLINE
  5
14E
330
1F
100
AcDbEntity
  8
0
  6
Continuous
 62
     7
370
    25
100
AcDbPolyline
 90
       38
 70
   128
 43
0.0
 10
636.6686842842
 20
-138.7983222429
 10
636.5466312362
 20
-140.5247347721
 10
636.1839833361
 20
-142.3424010059
 10
635.5911733038
 20
-144.199029996
 10
634.7852552045
 20
-146.0412099067
 10
633.7894138348
 20
-147.8159445762
 10
632.6322977375
 20
-149.4721781191
 10
631.3471950361
 20
-150.962263712
 10
629.9710757956
 20
-152.2433343054
 10
628.5435284609
 20
-153.2785358307
 10
627.1056209698
 20
-154.0380874247
 10
625.6987193029
 20
-154.5001381712
 10
624.3632974594
 20
-154.6513957113
 10
623.1377730945
 20
-154.487508641
 10
622.0574023129
 20
-154.0131916929
 10
621.1532654148
 20
-153.2420901021
 10
620.4513727728
 20
-152.1963870574
 10
619.9719165601
 20
-150.9061655314
 10
619.7286898591
 20
-149.4085428484
 10
619.7286898591
 20
-147.7466028862
 10
619.9719165601
 20
-145.9681566317
 10
620.4513727728
 20
-144.1243667456
 10
621.1532654148
 20
-142.2682757059
 10
622.0574023129
 20
-140.4532798725
 10
623.1377730945
 20
-138.731593371
 10
624.3632974594
 20
-137.1527459873
 10
625.6987193029
 20
-135.762158286
 10
627.1056209698
 20
-134.5998349435
 10
628.5435284609
 20
-133.6992138862
 10
629.9710757956
 20
-133.086204342
 10
631.3471950361
 20
-132.7784414795
 10
632.6322977375
 20
-132.7847790759
 10
633.7894138348
 20
-133.10503481
 10
634.7852552045
 20
-133.7299955075
 10
635.5911733038
 20
-134.641682187
 10
636.1839833361
 20
-135.8138672826
 10
636.5466312362
 20
-137.2128291633
 10
636.6686842842
 20
-138.7983222429
  0
LWPOLYLINE
  5
14F
330
1F
100
AcDbEntity
  8
0
  6
Continuous
 62
     7
370
    25
100
AcDbPolyline
 90
       38
 70
   128
 43
0.0
 10
562.0436842842
 20
-146.1838972044
 10
561.9216312362
 20
-147.9103097337
 10
561.5589833361
 20
-149.7279759674
 10
560.9661733038
 20
-151.5846049575
 10
560.1602552045
 20
-153.4267848683
 10
559.1644138348
 20
-155.2015195377
 10
558.0072977375
 20
-156.8577530807
 10
556.7221950361
 20
-158.3478386736
 10
555.3460757956
 20
-159.6289092669
 10
553.9185284609
 20
-160.6641107922
 10
552.4806209698
 20
-161.4236623863
 10
551.0737193029
 20
-161.8857131327
 10
549.7382974594
 20
-162.0369706728
 10
548.5127730945
 20
-161.8730836025
 10
547.4324023129
 20
-161.3987666544
 10
546.5282654148
 20
-160.6276650636
 10
545.8263727728
 20
-159.5819620189
 10
545.3469165601
 20
-158.2917404929
 10
545.1036898591
 20
-156.7941178099
 10
545.1036898591
 20
-155.1321778477
 10
545.3469165601
 20
-153.3537315932
 10
545.8263727728
 20
-151.5099417071
 10
546.5282654148
 20
-149.6538506674
 10
547.4324023129
 20
-147.838854834
 10
548.5127730945
 20
-146.1171683325
 10
549.7382974594
 20
-144.5383209488
 10
551.0737193029
 20
-143.1477332475
 10
552.4806209698
 20
-141.9854099051
 10
553.9185284609
 20
-141.0847888477
 10
555.3460757956
 20
-140.4717793036
 10
556.7221950361
 20
-140.164016441
 10
558.0072977375
 20
-140.1703540374
 10
559.1644138348
 20
-140.4906097715
 10
560.1602552045
 20
-141.115570469
 10
560.9661733038
 20
-142.0272571485
 10
561.5589833361
 20
-143.1994422441
 10
561.9216312362
 20
-144.5984041248
 10
562.0436842842
 20
-146.1838972044
  0
LWPOLYLINE
  5
150
330
1F
100
AcDbEntity
  8
0
  6
Continuous
 62
     7
370
    25
100
AcDbPolyline
 90
      119
 70
   128
 43
0.0
 10
637.7041098711
 20
-224.3747793958
 10
637.5848497969
 20
-229.6151380361
 10
637.2274076297
 20
-234.9783370613
 10
636.6327965784
 20
-240.4491739011
 10
635.8027021324
 20
-246.012140874
 10
634.7394772848
 20
-251.6514691458
 10
633.4461358618
 20
-257.3511734278
 10
631.9263439802
 20
-263.0950972891
 10
630.1844096553
 20
-268.8669589532
 10
628.2252705891
 20
-274.6503974513
 10
626.0544801741
 20
-280.4290189985
 10
623.6781917517
 20
-286.1864434644
 10
621.1031411696
 20
-291.9063508036
 10
618.3366276884
 20
-297.5725273174
 10
615.3864932911
 20
-303.1689116129
 10
612.2611004543
 20
-308.6796401308
 10
608.9693084434
 20
-314.0890921123
 10
605.5204482005
 20
-319.381933878
 10
601.9242958948
 20
-324.5431622931
 10
598.1910452107
 20
-329.5581472947
 10
594.3312784527
 20
-334.412673363
 10
590.3559365493
 20
-339.0929798164
 10
586.2762880387
 20
-343.5857998178
 10
582.1038971282
 20
-347.8783979809
 10
577.8505909128
 20
-351.9586064696
 10
573.5284258514
 20
-355.8148594898
 10
569.1496535902
 20
-359.4362260733
 10
564.726686235
 20
-362.812441063
 10
560.2720611674
 20
-365.9339342108
 10
555.798405506
 20
-368.7918573052
 10
551.3184003139
 20
-371.3781092527
 10
546.8447446525
 20
-373.6853590411
 10
542.3901195849
 20
-375.7070665203
 10
537.9671522297
 20
-377.4375009408
 10
533.5883799685
 20
-378.8717571981
 10
529.266214907
 20
-380.0057697371
 10
525.0129086917
 20
-380.836324076
 10
520.8405177811
 20
-381.3610659184
 10
516.7608692706
 20
-381.5785078265
 10
512.7855273671
 20
-381.4880334375
 10
508.9257606092
 20
-381.0898992109
 10
505.1925099251
 20
-380.3852337015
 10
501.5963576193
 20
-379.3760343602
 10
498.1474973765
 20
-378.0651618722
 10
494.8557053656
 20
-376.456332048
 10
491.7303125288
 20
-374.5541052905
 10
488.7801781315
 20
-372.3638736681
 10
486.0136646503
 20
-369.8918456303
 10
483.4386140681
 20
-367.1450284092
 10
481.0623256458
 20
-364.1312081566
 10
478.8915352308
 20
-360.8589278734
 10
476.9323961646
 20
-357.3374631937
 10
475.1904618397
 20
-353.5767960917
 10
473.6706699581
 20
-349.5875865868
 10
472.3773285351
 20
-345.3811425268
 10
471.3141036874
 20
-340.9693875345
 10
470.4840092415
 20
-336.3648272086
 10
469.8893981901
 20
-331.5805136756
 10
469.531956023
 20
-326.6300085922
 10
469.4126959487
 20
-321.5273447027
 10
469.531956023
 20
-316.2869860625
 10
469.8893981901
 20
-310.9237870373
 10
470.4840092415
 20
-305.4529501975
 10
471.3141036874
 20
-299.8899832246
 10
472.3773285351
 20
-294.2506549528
 10
473.6706699581
 20
-288.5509506707
 10
475.1904618397
 20
-282.8070268095
 10
476.9323961646
 20
-277.0351651454
 10
478.8915352308
 20
-271.2517266473
 10
481.0623256458
 20
-265.4731051
 10
483.4386140681
 20
-259.7156806342
 10
486.0136646503
 20
-253.995773295
 10
488.7801781315
 20
-248.3295967811
 10
491.7303125288
 20
-242.7332124856
 10
494.8557053656
 20
-237.2224839678
 10
498.1474973765
 20
-231.8130319863
 10
501.5963576194
 20
-226.5201902205
 10
505.1925099251
 20
-221.3589618055
 10
508.9257606092
 20
-216.3439768039
 10
512.7855273671
 20
-211.4894507356
 10
516.7608692706
 20
-206.8091442822
 10
520.8405177811
 20
-202.3163242807
 10
525.0129086917
 20
-198.0237261177
 10
529.266214907
 20
-193.943517629
 10
533.5883799685
 20
-190.0872646088
 10
537.9671522297
 20
-186.4658980253
 10
542.3901195849
 20
-183.0896830356
 10
546.8447446525
 20
-179.9681898878
 10
551.3184003139
 20
-177.1102667934
 10
555.798405506
 20
-174.5240148459
 10
560.2720611674
 20
-172.2167650574
 10
564.726686235
 20
-170.1950575783
 10
569.1496535902
 20
-168.4646231578
 10
573.5284258514
 20
-167.0303669005
 10
577.8505909128
 20
-165.8963543615
 10
582.1038971282
 20
-165.0658000225
 10
586.2762880387
 20
-164.5410581802
 10
590.3559365493
 20
-164.3236162721
 10
594.3312784527
 20
-164.4140906611
 10
598.1910452107
 20
-164.8122248877
 10
601.9242958948
 20
-165.5168903971
 10
605.5204482005
 20
-166.5260897384
 10
608.9693084434
 20
-167.8369622264
 10
612.2611004543
 20
-169.4457920506
 10
615.3864932911
 20
-171.3480188081
 10
618.3366276884
 20
-173.5382504305
 10
621.1031411696
 20
-176.0102784683
 10
623.6781917517
 20
-178.7570956894
 10
626.0544801741
 20
-181.770915942
 10
628.2252705891
 20
-185.0431962252
 10
630.1844096553
 20
-188.5646609049
 10
631.9263439802
 20
-192.3253280069
 10
633.4461358618
 20
-196.3145375118
 10
634.7394772848
 20
-200.5209815718
 10
635.8027021324
 20
-204.9327365641
 10
636.6327965784
 20
-209.53729689
 10
637.2274076297
 20
-214.3216104229
 10
637.5848497969
 20
-219.2721155064
 10
637.7041098711
 20
-224.3747793958
  0
LWPOLYLINE
  5
151
330
1F
100
AcDbEntity
  8
0
  6
Continuous
 62
     7
370
    25
100
AcDbPolyline
 90
       38
 70
   128
 43
0.0
 10
562.0436842842
 20
-389.9213295523
 10
561.9216312362
 20
-391.6477420816
 10
561.5589833361
 20
-393.4654083153
 10
560.9661733038
 20
-395.3220373054
 10
560.1602552045
 20
-397.1642172162
 10
559.1644138347
 20
-398.9389518856
 10
558.0072977375
 20
-400.5951854286
 10
556.7221950361
 20
-402.0852710215
 10
555.3460757956
 20
-403.3663416148
 10
553.9185284609
 20
-404.4015431401
 10
552.4806209698
 20
-405.1610947342
 10
551.0737193029
 20
-405.6231454806
 10
549.7382974594
 20
-405.7744030207
 10
548.5127730945
 20
-405.6105159504
 10
547.4324023129
 20
-405.1361990024
 10
546.5282654148
 20
-404.3650974115
 10
545.8263727728
 20
-403.3193943668
 10
545.3469165601
 20
-402.0291728408
 10
545.1036898591
 20
-400.5315501578
 10
545.1036898591
 20
-398.8696101956
 10
545.3469165601
 20
-397.0911639411
 10
545.8263727728
 20
-395.247374055
 10
546.5282654148
 20
-393.3912830153
 10
547.4324023129
 20
-391.5762871819
 10
548.5127730945
 20
-389.8546006804
 10
549.7382974594
 20
-388.2757532967
 10
551.0737193029
 20
-386.8851655954
 10
552.4806209698
 20
-385.722842253
 10
553.9185284609
 20
-384.8222211956
 10
555.3460757956
 20
-384.2092116515
 10
556.7221950361
 20
-383.9014487889
 10
558.0072977375
 20
-383.9077863853
 10
559.1644138347
 20
-384.2280421194
 10
560.1602552045
 20
-384.8530028169
 10
560.9661733038
 20
-385.7646894964
 10
561.5589833361
 20
-386.936874592
 10
561.9216312362
 20
-388.3358364727
 10
562.0436842842
 20
-389.9213295523
  0
LWPOLYLINE
  5
152
330
1F
100
AcDbEntity
  8
0
  6
Continuous
 62
     7
370
    25
100
AcDbPolyline
 90
       38
 70
   128
 43
0.0
 10
667.5793713763
 20
-207.1281580336
 10
667.4573183283
 20
-208.8545705629
 10
667.0946704282
 20
-210.6722367966
 10
666.5018603959
 20
-212.5288657867
 10
665.6959422966
 20
-214.3710456975
 10
664.7001009268
 20
-216.1457803669
 10
663.5429848296
 20
-217.8020139099
 10
662.2578821282
 20
-219.2920995028
 10
660.8817628877
 20
-220.5731700961
 10
659.454215553
 20
-221.6083716214
 10
658.0163080619
 20
-222.3679232154
 10
656.609406395
 20
-222.8299739619
 10
655.2739845515
 20
-222.981231502
 10
654.0484601866
 20
-222.8173444317
 10
652.968089405
 20
-222.3430274836
 10
652.0639525069
 20
-221.5719258928
 10
651.3620598649
 20
-220.5262228481
 10
650.8826036522
 20
-219.2360013221
 10
650.6393769512
 20
-217.7383786391
 10
650.6393769512
 20
-216.0764386769
 10
650.8826036522
 20
-214.2979924224
 10
651.3620598649
 20
-212.4542025363
 10
652.0639525069
 20
-210.5981114966
 10
652.968089405
 20
-208.7831156632
 10
654.0484601866
 20
-207.0614291617
 10
655.2739845515
 20
-205.482581778
 10
656.609406395
 20
-204.0919940767
 10
658.0163080619
 20
-202.9296707343
 10
659.454215553
 20
-202.0290496769
 10
660.8817628877
 20
-201.4160401327
 10
662.2578821282
 20
-201.1082772702
 10
663.5429848296
 20
-201.1146148666
 10
664.7001009268
 20
-201.4348706007
 10
665.6959422966
 20
-202.0598312982
 10
666.5018603959
 20
-202.9715179777
 10
667.0946704282
 20
-204.1437030733
 10
667.4573183283
 20
-205.542664954
 10
667.5793713763
 20
-207.1281580336
  0
LWPOLYLINE
  5
153
330
1F
100
AcDbEntity
  8
0
  6
Continuous
 62
     7
370
    25
100
AcDbPolyline
 90
       38
 70
   128
 43
0.0
 10
487.4186842842
 20
-397.3069045138
 10
487.2966312362
 20
-399.0333170431
 10
486.9339833361
 20
-400.8509832768
 10
486.3411733038
 20
-402.7076122669
 10
485.5352552045
 20
-404.5497921777
 10
484.5394138347
 20
-406.3245268472
 10
483.3822977375
 20
-407.9807603901
 10
482.0971950361
 20
-409.470845983
 10
480.7210757956
 20
-410.7519165764
 10
479.2935284609
 20
-411.7871181016
 10
477.8556209698
 20
-412.5466696957
 10
476.4487193029
 20
-413.0087204421
 10
475.1132974594
 20
-413.1599779822
 10
473.8877730945
 20
-412.9960909119
 10
472.8074023129
 20
-412.5217739639
 10
471.9032654148
 20
-411.7506723731
 10
471.2013727728
 20
-410.7049693283
 10
470.7219165601
 20
-409.4147478024
 10
470.4786898591
 20
-407.9171251193
 10
470.4786898591
 20
-406.2551851572
 10
470.7219165601
 20
-404.4767389027
 10
471.2013727728
 20
-402.6329490165
 10
471.9032654148
 20
-400.7768579769
 10
472.8074023129
 20
-398.9618621435
 10
473.8877730945
 20
-397.2401756419
 10
475.1132974594
 20
-395.6613282582
 10
476.4487193029
 20
-394.270740557
 10
477.8556209698
 20
-393.1084172145
 10
479.2935284609
 20
-392.2077961572
 10
480.7210757956
 20
-391.594786613
 10
482.0971950361
 20
-391.2870237505
 10
483.3822977375
 20
-391.2933613468
 10
484.5394138347
 20
-391.613617081
 10
485.5352552045
 20
-392.2385777785
 10
486.3411733038
 20
-393.150264458
 10
486.9339833361
 20
-394.3224495536
 10
487.2966312362
 20
-395.7214114343
 10
487.4186842842
 20
-397.3069045138
  0
LWPOLYLINE
  5
154
330
1F
100
AcDbEntity
  8
0
  6
Continuous
 62
     7
370
    25
100
AcDbPolyline
 90
       38
 70
   128
 43
0.0
 10
487.4186842842
 20
-224.9585132716
 10
487.2966312362
 20
-226.6849258009
 10
486.9339833361
 20
-228.5025920346
 10
486.3411733038
 20
-230.3592210247
 10
485.5352552045
 20
-232.2014009355
 10
484.5394138347
 20
-233.976135605
 10
483.3822977375
 20
-235.6323691479
 10
482.0971950361
 20
-237.1224547408
 10
480.7210757956
 20
-238.4035253342
 10
479.2935284609
 20
-239.4387268594
 10
477.8556209698
 20
-240.1982784535
 10
476.4487193029
 20
-240.6603291999
 10
475.1132974594
 20
-240.81158674
 10
473.8877730945
 20
-240.6476996697
 10
472.8074023129
 20
-240.1733827217
 10
471.9032654148
 20
-239.4022811309
 10
471.2013727728
 20
-238.3565780861
 10
470.7219165601
 20
-237.0663565602
 10
470.4786898591
 20
-235.5687338771
 10
470.4786898591
 20
-233.906793915
 10
470.7219165601
 20
-232.1283476605
 10
471.2013727728
 20
-230.2845577743
 10
471.9032654148
 20
-228.4284667347
 10
472.8074023129
 20
-226.6134709013
 10
473.8877730945
 20
-224.8917843997
 10
475.1132974594
 20
-223.312937016
 10
476.4487193029
 20
-221.9223493148
 10
477.8556209698
 20
-220.7600259723
 10
479.2935284609
 20
-219.859404915
 10
480.7210757956
 20
-219.2463953708
 10
482.0971950361
 20
-218.9386325083
 10
483.3822977375
 20
-218.9449701046
 10
484.5394138347
 20
-219.2652258388
 10
485.5352552045
 20
-219.8901865363
 10
486.3411733038
 20
-220.8018732158
 10
486.9339833361
 20
-221.9740583114
 10
487.2966312362
 20
-223.3730201921
 10
487.4186842842
 20
-224.9585132716
  0
ARC
  5
155
330
1F
100
AcDbEntity
  8
0
  6
Continuous
 62
     7
370
    25
100
AcDbCircle
 10
592.8692602582
 20
-206.5346970912
 30
0.0
 40
40.79544673688077
100
AcDbArc
 50
35.2477776329
 51
80.763031182
  0
ARC
  5
156
330
1F
100
AcDbEntity
  8
0
  6
Continuous
 62
     7
370
    25
100
AcDbCircle
 10
515.6466290327
 20
-340.2675886412
 30
0.0
 40
40.71955415440708
100
AcDbArc
 50
217.6593798932
 51
263.2281771363
  0
LINE
  5
157
330
1F
100
AcDbEntity
  8
0
  6
Continuous
 62
     7
370
    25
100
AcDbLine
 10
634.5518460117
 20
-307.0258873347
 30
0.0
 11
634.3900627206
 21
-306.9268287257
 31
0.0
  0
LINE
  5
158
330
1F
100
AcDbEntity
  8
0
  6
Continuous
 62
     7
370
    25
100
AcDbLine
 10
623.1745016488
 20
-325.844700808
 30
0.0
 11
623.3909566616
 21
-325.9799036981
 31
0.0
  0
LWPOLYLINE
  5
159
330
1F
100
AcDbEntity
  8
0
  6
Continuous
 62
     7
370
    25
100
AcDbPolyline
 90
        3
 70
   128
 43
0.0
 10
504.7748096516
 20
-379.5024826337
 10
502.412632302
 20
-376.9667879271
 10
501.2648568461
 20
-375.5753100615
  0
LWPOLYLINE
  5
15A
330
1F
100
AcDbEntity
  8
0
  6
Continuous
 62
     7
370
    25
100
AcDbPolyline
 90
        3
 70
   128
 43
0.0
 10
616.8987787454
 20
-176.4412085328
 10
619.9026361302
 20
-177.0330040159
 10
621.4338792603
 20
-177.4211509745
  0
LINE
  5
15B
330
1F
100
AcDbEntity
  8
0
  6
Continuous
 62
     7
370
    25
100
AcDbLine
 10
665.4625331038
 20
-203.0073318833
 30
0.0
 11
665.3007498127
 21
-202.9082732743
 31
0.0
  0
LINE
  5
15C
330
1F
100
AcDbEntity
  8
0
  6
Continuous
 62
     7
370
    25
100
AcDbLine
 10
654.0851887409
 20
-221.8261453565
 30
0.0
 11
654.3016437537
 21
-221.9613482466
 31
0.0
  0
LINE
  5
15D
330
1F
100
AcDbEntity
  8
0
  6
Continuous
 62
     7
370
    25
100
AcDbLine
 10
559.9268460117
 20
-385.800503402
 30
0.0
 11
559.7650627206
 21
-385.701444793
 31
0.0
  0
LINE
  5
15E
330
1F
100
AcDbEntity
  8
0
  6
Continuous
 62
     7
370
    25
100
AcDbLine
 10
548.5495016488
 20
-404.6193168753
 30
0.0
 11
548.7659566616
 21
-404.7545197653
 31
0.0
  0
LINE
  5
15F
330
1F
100
AcDbEntity
  8
0
  6
Continuous
 62
     7
370
    25
100
AcDbLine
 10
634.5518460117
 20
-134.6774960925
 30
0.0
 11
634.3900627206
 21
-134.5784374835
 31
0.0
  0
LINE
  5
160
330
1F
100
AcDbEntity
  8
0
  6
Continuous
 62
     7
370
    25
100
AcDbLine
 10
623.1745016488
 20
-153.4963095658
 30
0.0
 11
623.3909566616
 21
-153.6315124559
 31
0.0
  0
LINE
  5
161
330
1F
100
AcDbEntity
  8
0
  6
Continuous
 62
     7
370
    25
100
AcDbLine
 10
485.3018460117
 20
-393.1860783635
 30
0.0
 11
485.1400627206
 21
-393.0870197545
 31
0.0
  0
LINE
  5
162
330
1F
100
AcDbEntity
  8
0
  6
Continuous
 62
     7
370
    25
100
AcDbLine
 10
473.9245016488
 20
-412.0048918368
 30
0.0
 11
474.1409566616
 21
-412.1400947269
 31
0.0
  0
LINE
  5
163
330
1F
100
AcDbEntity
  8
0
  6
Continuous
 62
     7
370
    25
100
AcDbLine
 10
559.9268460117
 20
-142.0630710541
 30
0.0
 11
559.7650627206
 21
-141.9640124451
 31
0.0
  0
LINE
  5
164
330
1F
100
AcDbEntity
  8
0
  6
Continuous
 62
     7
370
    25
100
AcDbLine
 10
548.5495016488
 20
-160.8818845274
 30
0.0
 11
548.7659566616
 21
-161.0170874174
 31
0.0
  0
LINE
  5
165
330
1F
100
AcDbEntity
  8
0
  6
Continuous
 62
     7
370
    25
100
AcDbLine
 10
454.3911589196
 20
-324.8562425728
 30
0.0
 11
454.2293756285
 21
-324.7571839638
 31
0.0
  0
LINE
  5
166
330
1F
100
AcDbEntity
  8
0
  6
Continuous
 62
     7
370
    25
100
AcDbLine
 10
443.0138145567
 20
-343.6750560461
 30
0.0
 11
443.2302695695
 21
-343.8102589362
 31
0.0
  0
LINE
  5
167
330
1F
100
AcDbEntity
  8
0
  6
Continuous
 62
     7
370
    25
100
AcDbLine
 10
485.3018460117
 20
-220.8376871213
 30
0.0
 11
485.1400627206
 21
-220.7386285123
 31
0.0
  0
LINE
  5
168
330
1F
100
AcDbEntity
  8
0
  6
Continuous
 62
     7
370
    25
100
AcDbLine
 10
473.9245016488
 20
-239.6565005946
 30
0.0
 11
474.1409566616
 21
-239.7917034847
 31
0.0
  0
LWPOLYLINE
  5
169
330
1F
100
AcDbEntity
  8
0
  6
Continuous
 62
     1
370
    25
100
AcDbPolyline
 90
       49
 70
   128
 43
0.0
 10
676.2414294458
 20
-202.9440664605
 10
676.1220426503
 20
-209.2433994067
 10
675.7641159692
 20
-215.6682421729
 10
675.1683500607
 20
-222.2060178275
 10
674.3359111646
 20
-228.8439283679
 10
673.2684288191
 20
-235.5689797723
 10
671.967992671
 20
-242.3680074368
 10
670.4371483852
 20
-249.2277019455
 10
668.6788926612
 20
-256.1346351243
 10
666.6966673672
 20
-263.0752863271
 10
664.4943528022
 20
-270.0360689033
 10
662.0762601005
 20
-277.003356794
 10
659.4471227921
 20
-283.9635112061
 10
656.6120875367
 20
-290.9029073104
 10
653.576704049
 20
-297.8079609132
 10
650.3469142346
 20
-304.6651550479
 10
646.9290405589
 20
-311.4610664347
 10
643.32977367
 20
-318.1823917582
 10
639.556159302
 20
-324.8159737083
 10
635.615584482
 20
-331.3488267369
 10
631.5157630704
 20
-337.7681624774
 10
627.2647206602
 20
-344.0614147785
 10
622.8707788665
 20
-350.2162643034
 10
618.3425390366
 20
-356.2206626452
 10
613.6888654127
 20
-362.0628559121
 10
608.9188677795
 20
-367.7314077364
 10
604.0418836313
 20
-373.2152216617
 10
599.0674598936
 20
-378.5035628648
 10
594.0053342345
 20
-383.5860791694
 10
588.8654160027
 20
-388.4528213111
 10
583.6577668294
 20
-393.0942624138
 10
578.3925809326
 20
-397.5013166384
 10
573.0801651607
 20
-401.6653569694
 10
567.7309188173
 20
-405.5782321022
 10
562.3553133031
 20
-409.2322824001
 10
556.9638716185
 20
-412.620354888
 10
551.5671477637
 20
-415.7358172549
 10
546.1757060791
 20
-418.5725708369
 10
540.800100565
 20
-421.1250625557
 10
535.4508542215
 20
-423.3882957888
 10
530.1384384497
 20
-425.357840151
 10
524.8732525528
 20
-427.0298401666
 10
519.6656033796
 20
-428.4010228171
 10
514.5256851477
 20
-429.4687039481
 10
509.4635594886
 20
-430.2307935235
 10
504.4891357509
 20
-430.6857997174
 10
499.6121516027
 20
-430.8328318337
 10
494.8421539695
 20
-430.67160205
 10
491.4736189094
 20
-430.3641404414
  0
LWPOLYLINE
  5
16A
330
1F
100
AcDbEntity
  8
0
  6
Continuous
 62
     1
370
    25
100
AcDbPolyline
 90
       14
 70
   128
 43
0.0
 10
659.063982744
 20
-140.7879586732
 10
659.4471227921
 20
-141.3149154432
 10
662.0762601005
 20
-145.2395325322
 10
664.4943528022
 20
-149.4149500162
 10
666.6966673672
 20
-153.8329943194
 10
668.6788926612
 20
-158.4850169126
 10
670.4371483852
 20
-163.361911243
 10
671.967992671
 20
-168.4541305611
 10
673.2684288191
 20
-173.7517066083
 10
674.3359111646
 20
-179.2442691309
 10
675.1683500607
 20
-184.9210661796
 10
675.7641159692
 20
-190.7709851578
 10
676.1220426503
 20
-196.7825745743
 10
676.2414294458
 20
-202.9440664605
  0
LWPOLYLINE
  5
16B
330
1F
100
AcDbEntity
  8
0
  6
Continuous
 62
     1
370
    25
100
AcDbPolyline
 90
       14
 70
   128
 43
0.0
 10
693.9190989755
 20
-213.1491678583
 10
693.79971218
 20
-206.9876759721
 10
693.4417854989
 20
-200.9760865556
 10
692.8460195904
 20
-195.1261675774
 10
692.0135806943
 20
-189.4493705286
 10
690.9460983488
 20
-183.9568080061
 10
689.6456622007
 20
-178.6592319589
 10
688.1148179149
 20
-173.5670126408
 10
686.3565621909
 20
-168.6901183103
 10
684.3743368968
 20
-164.0380957172
 10
682.1720223319
 20
-159.620051414
 10
679.7539296302
 20
-155.44463393
 10
677.1247923218
 20
-151.520016841
 10
676.9179071164
 20
-151.2341664103
  0
LWPOLYLINE
  5
16C
330
1F
100
AcDbEntity
  8
0
  6
Continuous
 62
     1
370
    25
100
AcDbPolyline
 90
       49
 70
   128
 43
0.0
 10
509.2465394341
 20
-440.5802331053
 10
512.5198234992
 20
-440.8767034478
 10
517.2898211324
 20
-441.0379332314
 10
522.1668052806
 20
-440.8909011152
 10
527.1412290183
 20
-440.4358949213
 10
532.2033546774
 20
-439.6738053458
 10
537.3432729092
 20
-438.6061242149
 10
542.5509220825
 20
-437.2349415644
 10
547.8161079793
 20
-435.5629415488
 10
553.1285237512
 20
-433.5933971866
 10
558.4777700946
 20
-431.3301639535
 10
563.8533756088
 20
-428.7776722347
 10
569.2448172934
 20
-425.9409186527
 10
574.6415411482
 20
-422.8254562858
 10
580.0329828328
 20
-419.4373837979
 10
585.408588347
 20
-415.7833335
 10
590.7578346904
 20
-411.8704583671
 10
596.0702504622
 20
-407.7064180362
 10
601.3354363591
 20
-403.2993638116
 10
606.5430855324
 20
-398.6579227089
 10
611.6830037642
 20
-393.7911805671
 10
616.7451294233
 20
-388.7086642625
 10
621.719553161
 20
-383.4203230595
 10
626.5965373092
 20
-377.9365091341
 10
631.3665349424
 20
-372.2679573099
 10
636.0202085663
 20
-366.425764043
 10
640.5484483961
 20
-360.4213657012
 10
644.9423901899
 20
-354.2665161763
 10
649.1934326001
 20
-347.9732638751
 10
653.2932540117
 20
-341.5539281347
 10
657.2338288316
 20
-335.0210751061
 10
661.0074431997
 20
-328.387493156
 10
664.6067100886
 20
-321.6661678325
 10
668.0245837643
 20
-314.8702564456
 10
671.2543735787
 20
-308.013062311
 10
674.2897570664
 20
-301.1080087082
 10
677.1247923218
 20
-294.1686126039
 10
679.7539296302
 20
-287.2084581918
 10
682.1720223319
 20
-280.2411703011
 10
684.3743368968
 20
-273.2803877249
 10
686.3565621909
 20
-266.3397365221
 10
688.1148179149
 20
-259.4328033433
 10
689.6456622007
 20
-252.5731088346
 10
690.9460983488
 20
-245.7740811701
 10
692.0135806943
 20
-239.0490297657
 10
692.8460195904
 20
-232.4111192253
 10
693.4417854989
 20
-225.8733435706
 10
693.79971218
 20
-219.4485008045
 10
693.9190989755
 20
-213.1491678583
  0
LWPOLYLINE
  5
16D
330
1F
100
AcDbEntity
  8
0
  6
Continuous
 62
     1
370
    25
100
AcDbPolyline
 90
       53
 70
   128
 43
0.0
 10
599.4176671196
 20
-166.2682489981
 10
598.5230877708
 20
-166.1291586676
 10
594.6957560277
 20
-165.7343701068
 10
590.7538203587
 20
-165.6446560068
 10
586.7084546088
 20
-165.860270672
 10
582.5711258067
 20
-166.380602919
 10
578.3535616604
 20
-167.2041778097
 10
574.0677173137
 20
-168.3286608316
 10
569.7257414581
 20
-169.7508645153
 10
565.3399418958
 20
-171.4667574701
 10
560.9227506523
 20
-173.4714758108
 10
556.486688736
 20
-175.7593369455
 10
552.0443306463
 20
-178.3238556834
 10
547.60826873
 20
-181.1577626173
 10
543.1910774864
 20
-184.2530247303
 10
538.8052779242
 20
-187.6008681655
 10
534.4633020685
 20
-191.191803097
 10
530.1774577219
 20
-195.0156506296
 10
525.9598935756
 20
-199.061571652
 10
521.8225647735
 20
-203.3180975616
 10
517.7771990236
 20
-207.7731627731
 10
513.8352633546
 20
-212.4141389202
 10
510.0079316114
 20
-217.2278706518
 10
506.3060527817
 20
-222.2007129223
 10
502.7401202433
 20
-227.31856967
 10
499.3202420193
 20
-232.5669337738
 10
496.0561121262
 20
-237.9309281757
 10
492.9569830947
 20
-243.3953480505
 10
490.0316397427
 20
-248.9447039065
 10
487.288374274
 20
-254.5632654917
 10
484.7349627724
 20
-260.2351063827
 10
482.3786431603
 20
-265.9441491303
 10
480.2260946816
 20
-271.6742108326
 10
478.2834189689
 20
-277.4090490072
 10
476.5561227475
 20
-283.1324076322
 10
475.0491022263
 20
-288.8280632256
 10
473.7666292186
 20
-294.479870833
 10
472.7123390335
 20
-300.0718097916
 10
471.8892201712
 20
-305.5880291429
 10
471.2996058513
 20
-311.0128925639
 10
470.9451673999
 20
-316.3310226897
 10
470.8269095111
 20
-321.5273447027
 10
470.9451673999
 20
-326.5871290637
 10
471.2996058513
 20
-331.4960332641
 10
471.8892201712
 20
-336.2401424816
 10
472.7123390335
 20
-340.8060090233
 10
473.7666292186
 20
-345.1806904443
 10
475.0491022263
 20
-349.3517862348
 10
476.5561227475
 20
-353.3074729708
 10
478.2834189689
 20
-357.0365378282
 10
480.2260946816
 20
-360.5284103678
 10
482.3786431603
 20
-363.7731924973
 10
483.4107138764
 20
-365.1458495244
  0
LWPOLYLINE
  5
16E
330
1F
100
AcDbEntity
  8
0
  6
Continuous
 62
     1
370
    25
100
AcDbPolyline
 90
       20
 70
   128
 43
0.0
 10
634.3900627206
 20
-306.9268287257
 10
633.8902239455
 20
-306.6865205421
 10
632.7795969876
 20
-306.4296479549
 10
631.5508020802
 20
-306.4773409746
 10
630.2411755348
 20
-306.8281504731
 10
628.8905096911
 20
-307.4714172812
 10
627.5398438475
 20
-308.3875960624
 10
626.230217302
 20
-309.5488491882
 10
625.0014223946
 20
-310.9198925699
 10
623.8907954367
 20
-312.4590677481
 10
622.9320822665
 20
-314.119607664
 10
622.1544128985
 20
-315.8510576524
 10
621.5814164228
 20
-317.6008084815
 10
621.2305030476
 20
-319.315694858
 10
621.1123350981
 20
-320.9436108269
 10
621.2305030476
 20
-322.4350929854
 10
621.5814164228
 20
-323.7448234028
 10
622.1544128985
 20
-324.8330065831
 10
622.9320822665
 20
-325.666578631
 10
623.1745016488
 20
-325.844700808
  0
LWPOLYLINE
  5
16F
330
1F
100
AcDbEntity
  8
0
  6
Continuous
 62
     1
370
    25
100
AcDbPolyline
 90
       53
 70
   128
 43
0.0
 10
501.2648568461
 20
-375.5753100615
 10
500.0563126899
 20
-373.9782938951
 10
497.9037642112
 20
-370.7335117656
 10
495.9610884985
 20
-367.241639226
 10
494.2337922772
 20
-363.5125743685
 10
492.7267717559
 20
-359.5568876326
 10
491.4442987483
 20
-355.385791842
 10
490.3900085632
 20
-351.011110421
 10
489.5668897008
 20
-346.4452438794
 10
488.977275381
 20
-341.7011346619
 10
488.6228369295
 20
-336.7922304615
 10
488.5045790408
 20
-331.7324461005
 10
488.6228369295
 20
-326.5361240875
 10
488.977275381
 20
-321.2179939617
 10
489.5668897008
 20
-315.7931305407
 10
490.3900085632
 20
-310.2769111894
 10
491.4442987483
 20
-304.6849722308
 10
492.7267717559
 20
-299.0331646234
 10
494.2337922772
 20
-293.3375090299
 10
495.9610884985
 20
-287.614150405
 10
497.9037642112
 20
-281.8793122304
 10
500.0563126899
 20
-276.1492505281
 10
502.412632302
 20
-270.4402077805
 10
504.9660438036
 20
-264.7683668895
 10
507.7093092724
 20
-259.1498053043
 10
510.6346526243
 20
-253.6004494483
 10
513.7337816558
 20
-248.1360295734
 10
516.997911549
 20
-242.7720351716
 10
520.417789773
 20
-237.5236710677
 10
523.9837223114
 20
-232.4058143201
 10
527.6856011411
 20
-227.4329720496
 10
531.5129328842
 20
-222.619240318
 10
535.4548685532
 20
-217.9782641709
 10
539.5002343031
 20
-213.5231989594
 10
543.6375631052
 20
-209.2666730498
 10
547.8551272515
 20
-205.2207520274
 10
552.1409715982
 20
-201.3969044948
 10
556.4829474538
 20
-197.8059695633
 10
560.8687470161
 20
-194.458126128
 10
565.2859382596
 20
-191.3628640151
 10
569.722000176
 20
-188.5289570811
 10
574.1643582656
 20
-185.9644383433
 10
578.600420182
 20
-183.6765772085
 10
583.0176114255
 20
-181.6718588678
 10
587.4034109878
 20
-179.9559659131
 10
591.7453868434
 20
-178.5337622294
 10
596.0312311901
 20
-177.4092792075
 10
600.2487953363
 20
-176.5857043168
 10
604.3861241384
 20
-176.0653720697
 10
608.4314898883
 20
-175.8497574046
 10
612.3734255574
 20
-175.9394715046
 10
616.2007573005
 20
-176.3342600654
 10
616.8987787454
 20
-176.4412085328
  0
LWPOLYLINE
  5
170
330
1F
100
AcDbEntity
  8
0
  6
Continuous
 62
     1
370
    25
100
AcDbPolyline
 90
       20
 70
   128
 43
0.0
 10
665.3007498127
 20
-202.9082732743
 10
664.8009110376
 20
-202.6679650907
 10
663.6902840797
 20
-202.4110925034
 10
662.4614891723
 20
-202.4587855231
 10
661.1518626269
 20
-202.8095950216
 10
659.8011967832
 20
-203.4528618297
 10
658.4505309396
 20
-204.369040611
 10
657.1409043941
 20
-205.5302937367
 10
655.9121094867
 20
-206.9013371184
 10
654.8014825288
 20
-208.4405122967
 10
653.8427693586
 20
-210.1010522125
 10
653.0650999906
 20
-211.8325022009
 10
652.4921035149
 20
-213.5822530301
 10
652.1411901397
 20
-215.2971394065
 10
652.0230221902
 20
-216.9250553755
 10
652.1411901397
 20
-218.416537534
 10
652.4921035149
 20
-219.7262679513
 10
653.0650999906
 20
-220.8144511316
 10
653.8427693586
 20
-221.6480231795
 10
654.0851887409
 20
-221.8261453565
  0
LWPOLYLINE
  5
171
330
1F
100
AcDbEntity
  8
0
  6
Continuous
 62
     1
370
    25
100
AcDbPolyline
 90
       20
 70
   128
 43
0.0
 10
559.7650627206
 20
-385.701444793
 10
559.2652239455
 20
-385.4611366094
 10
558.1545969876
 20
-385.2042640221
 10
556.9258020802
 20
-385.2519570419
 10
555.6161755348
 20
-385.6027665403
 10
554.2655096911
 20
-386.2460333484
 10
552.9148438475
 20
-387.1622121297
 10
551.605217302
 20
-388.3234652555
 10
550.3764223946
 20
-389.6945086372
 10
549.2657954367
 20
-391.2336838154
 10
548.3070822665
 20
-392.8942237312
 10
547.5294128985
 20
-394.6256737196
 10
546.9564164228
 20
-396.3754245488
 10
546.6055030476
 20
-398.0903109252
 10
546.4873350981
 20
-399.7182268942
 10
546.6055030476
 20
-401.2097090527
 10
546.9564164228
 20
-402.5194394701
 10
547.5294128985
 20
-403.6076226503
 10
548.3070822665
 20
-404.4411946983
 10
548.5495016488
 20
-404.6193168753
  0
LWPOLYLINE
  5
172
330
1F
100
AcDbEntity
  8
0
  6
Continuous
 62
     1
370
    25
100
AcDbPolyline
 90
       20
 70
   128
 43
0.0
 10
634.3900627206
 20
-134.5784374835
 10
633.8902239455
 20
-134.3381292999
 10
632.7795969877
 20
-134.0812567127
 10
631.5508020803
 20
-134.1289497324
 10
630.2411755348
 20
-134.4797592309
 10
628.8905096911
 20
-135.123026039
 10
627.5398438475
 20
-136.0392048202
 10
626.230217302
 20
-137.200457946
 10
625.0014223946
 20
-138.5715013277
 10
623.8907954367
 20
-140.1106765059
 10
622.9320822665
 20
-141.7712164218
 10
622.1544128985
 20
-143.5026664102
 10
621.5814164229
 20
-145.2524172393
 10
621.2305030476
 20
-146.9673036158
 10
621.1123350981
 20
-148.5952195847
 10
621.2305030476
 20
-150.0867017432
 10
621.5814164229
 20
-151.3964321606
 10
622.1544128985
 20
-152.4846153409
 10
622.9320822665
 20
-153.3181873888
 10
623.1745016488
 20
-153.4963095658
  0
LWPOLYLINE
  5
173
330
1F
100
AcDbEntity
  8
0
  6
Continuous
 62
     1
370
    25
100
AcDbPolyline
 90
       20
 70
   128
 43
0.0
 10
485.1400627206
 20
-393.0870197545
 10
484.6402239455
 20
-392.8467115709
 10
483.5295969876
 20
-392.5898389837
 10
482.3008020802
 20
-392.6375320034
 10
480.9911755348
 20
-392.9883415019
 10
479.6405096911
 20
-393.6316083099
 10
478.2898438475
 20
-394.5477870912
 10
476.980217302
 20
-395.709040217
 10
475.7514223946
 20
-397.0800835987
 10
474.6407954367
 20
-398.6192587769
 10
473.6820822665
 20
-400.2797986928
 10
472.9044128985
 20
-402.0112486811
 10
472.3314164228
 20
-403.7609995103
 10
471.9805030476
 20
-405.4758858868
 10
471.8623350981
 20
-407.1038018557
 10
471.9805030476
 20
-408.5952840142
 10
472.3314164228
 20
-409.9050144316
 10
472.9044128985
 20
-410.9931976119
 10
473.6820822665
 20
-411.8267696598
 10
473.9245016488
 20
-412.0048918368
  0
LWPOLYLINE
  5
174
330
1F
100
AcDbEntity
  8
0
  6
Continuous
 62
     1
370
    25
100
AcDbPolyline
 90
       20
 70
   128
 43
0.0
 10
559.7650627206
 20
-141.9640124451
 10
559.2652239455
 20
-141.7237042615
 10
558.1545969877
 20
-141.4668316742
 10
556.9258020803
 20
-141.514524694
 10
555.6161755348
 20
-141.8653341924
 10
554.2655096911
 20
-142.5086010005
 10
552.9148438475
 20
-143.4247797818
 10
551.605217302
 20
-144.5860329076
 10
550.3764223946
 20
-145.9570762892
 10
549.2657954367
 20
-147.4962514675
 10
548.3070822665
 20
-149.1567913833
 10
547.5294128985
 20
-150.8882413717
 10
546.9564164229
 20
-152.6379922009
 10
546.6055030476
 20
-154.3528785773
 10
546.4873350981
 20
-155.9807945463
 10
546.6055030476
 20
-157.4722767048
 10
546.9564164229
 20
-158.7820071222
 10
547.5294128985
 20
-159.8701903024
 10
548.3070822665
 20
-160.7037623504
 10
548.5495016488
 20
-160.8818845274
  0
LWPOLYLINE
  5
175
330
1F
100
AcDbEntity
  8
0
  6
Continuous
 62
     1
370
    25
100
AcDbPolyline
 90
       20
 70
   128
 43
0.0
 10
454.2293756285
 20
-324.7571839638
 10
453.7295368534
 20
-324.5168757802
 10
452.6189098956
 20
-324.2600031929
 10
451.3901149882
 20
-324.3076962127
 10
450.0804884427
 20
-324.6585057111
 10
448.729822599
 20
-325.3017725192
 10
447.3791567554
 20
-326.2179513005
 10
446.0695302099
 20
-327.3792044263
 10
444.8407353025
 20
-328.750247808
 10
443.7301083446
 20
-330.2894229862
 10
442.7713951744
 20
-331.949962902
 10
441.9937258064
 20
-333.6814128904
 10
441.4207293308
 20
-335.4311637196
 10
441.0698159555
 20
-337.146050096
 10
440.951648006
 20
-338.773966065
 10
441.0698159555
 20
-340.2654482235
 10
441.4207293308
 20
-341.5751786409
 10
441.9937258064
 20
-342.6633618212
 10
442.7713951744
 20
-343.4969338691
 10
443.0138145567
 20
-343.6750560461
  0
LWPOLYLINE
  5
176
330
1F
100
AcDbEntity
  8
0
  6
Continuous
 62
     1
370
    25
100
AcDbPolyline
 90
       20
 70
   128
 43
0.0
 10
485.1400627206
 20
-220.7386285123
 10
484.6402239455
 20
-220.4983203287
 10
483.5295969877
 20
-220.2414477415
 10
482.3008020803
 20
-220.2891407612
 10
480.9911755348
 20
-220.6399502597
 10
479.6405096911
 20
-221.2832170677
 10
478.2898438475
 20
-222.199395849
 10
476.980217302
 20
-223.3606489748
 10
475.7514223946
 20
-224.7316923565
 10
474.6407954367
 20
-226.2708675347
 10
473.6820822665
 20
-227.9314074506
 10
472.9044128985
 20
-229.6628574389
 10
472.3314164228
 20
-231.4126082681
 10
471.9805030476
 20
-233.1274946446
 10
471.8623350981
 20
-234.7554106135
 10
471.9805030476
 20
-236.246892772
 10
472.3314164228
 20
-237.5566231894
 10
472.9044128985
 20
-238.6448063697
 10
473.6820822665
 20
-239.4783784176
 10
473.9245016488
 20
-239.6565005946
  0
ENDSEC
  0
SECTION
  2
OBJECTS
  0
DICTIONARY
  5
C
330
0
100
AcDbDictionary
281
     1
  3
ACAD_GROUP
350
D
  3
ACAD_LAYOUT
350
1A
  3
ACAD_MLINESTYLE
350
17
  3
ACAD_PLOTSETTINGS
350
19
  3
ACAD_PLOTSTYLENAME
350
E
  3
ACAD_SCALELIST
350
47
  3
DWGPROPS
350
177
  0
DICTIONARY
  5
D
102
{ACAD_REACTORS
330
C
102
}
330
C
100
AcDbDictionary
281
     1
  0
DICTIONARY
  5
1A
102
{ACAD_REACTORS
330
C
102
}
330
C
100
AcDbDictionary
281
     1
  3
Layout1
350
1E
  3
Layout2
350
26
  3
Model
350
22
  0
DICTIONARY
  5
17
102
{ACAD_REACTORS
330
C
102
}
330
C
100
AcDbDictionary
281
     1
  3
Standard
350
18
  0
DICTIONARY
  5
19
102
{ACAD_REACTORS
330
C
102
}
330
C
100
AcDbDictionary
281
     1
  0
ACDBDICTIONARYWDFLT
  5
E
102
{ACAD_REACTORS
330
C
102
}
330
C
100
AcDbDictionary
281
     1
  3
Normal
350
F
100
AcDbDictionaryWithDefault
340
F
  0
DICTIONARY
  5
47
102
{ACAD_REACTORS
330
C
102
}
330
C
100
AcDbDictionary
281
     1
  3
A0
350
48
  3
A1
350
49
  3
A2
350
4A
  3
A3
350
4B
  3
A4
350
4C
  3
A5
350
4D
  3
A6
350
4E
  3
A7
350
4F
  3
A8
350
50
  3
A9
350
51
  3
B0
350
52
  3
B1
350
53
  3
B2
350
54
  3
B3
350
55
  3
B4
350
56
  3
B5
350
57
  3
B6
350
58
  3
B7
350
59
  3
B8
350
5A
  3
B9
350
5B
  3
C0
350
5C
  3
C1
350
5D
  3
C2
350
5E
  3
C3
350
5F
  3
C4
350
60
  3
C5
350
61
  3
C6
350
62
  3
C7
350
63
  3
C8
350
64
  3
C9
350
65
  3
D0
350
66
  3
D1
350
67
  3
D2
350
68
  0
XRECORD
  5
177
102
{ACAD_REACTORS
330
C
102
}
330
C
100
AcDbXrecord
280
     1
  1
DWGPROPS COOKIE
  2

  3

  4

  6

  7

  8
b.kav
  9

300
=
301
=
302
=
303
=
304
=
305
=
306
=
307
=
308
=
309
=
 40
0.0
 41
2459741.463716389
 42
2459741.463718195
  1

 90
        0
  0
LAYOUT
  5
1E
102
{ACAD_REACTORS
330
1A
102
}
330
1A
100
AcDbPlotSettings
  1

  2
none_device
  4

  6

 40
0.0
 41
0.0
 42
0.0
 43
0.0
 44
0.0
 45
0.0
 46
0.0
 47
0.0
 48
0.0
 49
0.0
140
0.0
141
0.0
142
1.0
143
1.0
 70
   688
 72
     1
 73
     0
 74
     5
  7

 75
    16
147
1.0
148
0.0
149
0.0
100
AcDbLayout
  1
Layout1
 70
     1
 71
     1
 10
0.0
 20
0.0
 11
420.0
 21
297.0
 12
0.0
 22
0.0
 32
0.0
 14
1.0000000000E+20
 24
1.0000000000E+20
 34
1.0000000000E+20
 15
-1.0000000000E+20
 25
-1.0000000000E+20
 35
-1.0000000000E+20
146
0.0
 13
0.0
 23
0.0
 33
0.0
 16
1.0
 26
0.0
 36
0.0
 17
0.0
 27
1.0
 37
0.0
 76
     0
330
1B
  0
LAYOUT
  5
26
102
{ACAD_REACTORS
330
1A
102
}
330
1A
100
AcDbPlotSettings
  1

  2
none_device
  4

  6

 40
0.0
 41
0.0
 42
0.0
 43
0.0
 44
0.0
 45
0.0
 46
0.0
 47
0.0
 48
0.0
 49
0.0
140
0.0
141
0.0
142
1.0
143
1.0
 70
   688
 72
     1
 73
     0
 74
     5
  7

 75
    16
147
1.0
148
0.0
149
0.0
100
AcDbLayout
  1
Layout2
 70
     1
 71
     2
 10
0.0
 20
0.0
 11
0.0
 21
0.0
 12
0.0
 22
0.0
 32
0.0
 14
0.0
 24
0.0
 34
0.0
 15
0.0
 25
0.0
 35
0.0
146
0.0
 13
0.0
 23
0.0
 33
0.0
 16
1.0
 26
0.0
 36
0.0
 17
0.0
 27
1.0
 37
0.0
 76
     0
330
23
  0
LAYOUT
  5
22
102
{ACAD_REACTORS
330
1A
102
}
330
1A
100
AcDbPlotSettings
  1

  2
none_device
  4
Letter_(8.50_x_11.00_Inches)
  6

 40
6.35
 41
6.35
 42
6.35000508
 43
6.35000508
 44
215.9
 45
279.4
 46
0.0
 47
0.0
 48
0.0
 49
0.0
140
0.0
141
0.0
142
1.0
143
1.0
 70
  1712
 72
     1
 73
     0
 74
     0
  7

 75
     0
147
1.0
148
0.0
149
0.0
100
AcDbLayout
  1
Model
 70
     1
 71
     0
 10
0.0
 20
0.0
 11
279.4
 21
215.9
 12
0.0
 22
0.0
 32
0.0
 14
0.0
 24
0.0
 34
0.0
 15
279.4
 25
215.9
 35
0.0
146
0.0
 13
0.0
 23
0.0
 33
0.0
 16
1.0
 26
0.0
 36
0.0
 17
0.0
 27
1.0
 37
0.0
 76
     0
330
1F
331
29
  0
MLINESTYLE
  5
18
102
{ACAD_REACTORS
330
17
102
}
330
17
100
AcDbMlineStyle
  2
Standard
 70
     0
  3

 62
   256
 51
90.0
 52
90.0
 71
     2
 49
0.5
 62
   256
  6
BYLAYER
 49
-0.5
 62
   256
  6
BYLAYER
  0
ACDBPLACEHOLDER
  5
F
102
{ACAD_REACTORS
330
E
102
}
330
E
  0
SCALE
  5
48
102
{ACAD_REACTORS
330
47
102
}
330
47
100
AcDbScale
 70
     0
300
1:1
140
1.0
141
1.0
290
     1
  0
SCALE
  5
49
102
{ACAD_REACTORS
330
47
102
}
330
47
100
AcDbScale
 70
     0
300
1:2
140
1.0
141
2.0
290
     0
  0
SCALE
  5
4A
102
{ACAD_REACTORS
330
47
102
}
330
47
100
AcDbScale
 70
     0
300
1:4
140
1.0
141
4.0
290
     0
  0
SCALE
  5
4B
102
{ACAD_REACTORS
330
47
102
}
330
47
100
AcDbScale
 70
     0
300
1:5
140
1.0
141
5.0
290
     0
  0
SCALE
  5
4C
102
{ACAD_REACTORS
330
47
102
}
330
47
100
AcDbScale
 70
     0
300
1:8
140
1.0
141
8.0
290
     0
  0
SCALE
  5
4D
102
{ACAD_REACTORS
330
47
102
}
330
47
100
AcDbScale
 70
     0
300
1:10
140
1.0
141
10.0
290
     0
  0
SCALE
  5
4E
102
{ACAD_REACTORS
330
47
102
}
330
47
100
AcDbScale
 70
     0
300
1:16
140
1.0
141
16.0
290
     0
  0
SCALE
  5
4F
102
{ACAD_REACTORS
330
47
102
}
330
47
100
AcDbScale
 70
     0
300
1:20
140
1.0
141
20.0
290
     0
  0
SCALE
  5
50
102
{ACAD_REACTORS
330
47
102
}
330
47
100
AcDbScale
 70
     0
300
1:30
140
1.0
141
30.0
290
     0
  0
SCALE
  5
51
102
{ACAD_REACTORS
330
47
102
}
330
47
100
AcDbScale
 70
     0
300
1:40
140
1.0
141
40.0
290
     0
  0
SCALE
  5
52
102
{ACAD_REACTORS
330
47
102
}
330
47
100
AcDbScale
 70
     0
300
1:50
140
1.0
141
50.0
290
     0
  0
SCALE
  5
53
102
{ACAD_REACTORS
330
47
102
}
330
47
100
AcDbScale
 70
     0
300
1:100
140
1.0
141
100.0
290
     0
  0
SCALE
  5
54
102
{ACAD_REACTORS
330
47
102
}
330
47
100
AcDbScale
 70
     0
300
2:1
140
2.0
141
1.0
290
     0
  0
SCALE
  5
55
102
{ACAD_REACTORS
330
47
102
}
330
47
100
AcDbScale
 70
     0
300
4:1
140
4.0
141
1.0
290
     0
  0
SCALE
  5
56
102
{ACAD_REACTORS
330
47
102
}
330
47
100
AcDbScale
 70
     0
300
8:1
140
8.0
141
1.0
290
     0
  0
SCALE
  5
57
102
{ACAD_REACTORS
330
47
102
}
330
47
100
AcDbScale
 70
     0
300
10:1
140
10.0
141
1.0
290
     0
  0
SCALE
  5
58
102
{ACAD_REACTORS
330
47
102
}
330
47
100
AcDbScale
 70
     0
300
100:1
140
100.0
141
1.0
290
     0
  0
SCALE
  5
59
102
{ACAD_REACTORS
330
47
102
}
330
47
100
AcDbScale
 70
     0
300
1/128" = 1'-0"
140
0.0078125
141
12.0
290
     0
  0
SCALE
  5
5A
102
{ACAD_REACTORS
330
47
102
}
330
47
100
AcDbScale
 70
     0
300
1/64" = 1'-0"
140
0.015625
141
12.0
290
     0
  0
SCALE
  5
5B
102
{ACAD_REACTORS
330
47
102
}
330
47
100
AcDbScale
 70
     0
300
1/32" = 1'-0"
140
0.03125
141
12.0
290
     0
  0
SCALE
  5
5C
102
{ACAD_REACTORS
330
47
102
}
330
47
100
AcDbScale
 70
     0
300
1/16" = 1'-0"
140
0.0625
141
12.0
290
     0
  0
SCALE
  5
5D
102
{ACAD_REACTORS
330
47
102
}
330
47
100
AcDbScale
 70
     0
300
3/32" = 1'-0"
140
0.09375
141
12.0
290
     0
  0
SCALE
  5
5E
102
{ACAD_REACTORS
330
47
102
}
330
47
100
AcDbScale
 70
     0
300
1/8" = 1'-0"
140
0.125
141
12.0
290
     0
  0
SCALE
  5
5F
102
{ACAD_REACTORS
330
47
102
}
330
47
100
AcDbScale
 70
     0
300
3/16" = 1'-0"
140
0.1875
141
12.0
290
     0
  0
SCALE
  5
60
102
{ACAD_REACTORS
330
47
102
}
330
47
100
AcDbScale
 70
     0
300
1/4" = 1'-0"
140
0.25
141
12.0
290
     0
  0
SCALE
  5
61
102
{ACAD_REACTORS
330
47
102
}
330
47
100
AcDbScale
 70
     0
300
3/8" = 1'-0"
140
0.375
141
12.0
290
     0
  0
SCALE
  5
62
102
{ACAD_REACTORS
330
47
102
}
330
47
100
AcDbScale
 70
     0
300
1/2" = 1'-0"
140
0.5
141
12.0
290
     0
  0
SCALE
  5
63
102
{ACAD_REACTORS
330
47
102
}
330
47
100
AcDbScale
 70
     0
300
3/4" = 1'-0"
140
0.75
141
12.0
290
     0
  0
SCALE
  5
64
102
{ACAD_REACTORS
330
47
102
}
330
47
100
AcDbScale
 70
     0
300
1" = 1'-0"
140
1.0
141
12.0
290
     0
  0
SCALE
  5
65
102
{ACAD_REACTORS
330
47
102
}
330
47
100
AcDbScale
 70
     0
300
1-1/2" = 1'-0"
140
1.5
141
12.0
290
     0
  0
SCALE
  5
66
102
{ACAD_REACTORS
330
47
102
}
330
47
100
AcDbScale
 70
     0
300
3" = 1'-0"
140
3.0
141
12.0
290
     0
  0
SCALE
  5
67
102
{ACAD_REACTORS
330
47
102
}
330
47
100
AcDbScale
 70
     0
300
6" = 1'-0"
140
6.0
141
12.0
290
     0
  0
SCALE
  5
68
102
{ACAD_REACTORS
330
47
102
}
330
47
100
AcDbScale
 70
     0
300
1'-0" = 1'-0"
140
12.0
141
12.0
290
     0
  0
ENDSEC
  0
EOF
